Cradle Of Filth – 13 Auttums And A Widow tab

Band- Cradle Of Filth
Song- 13 Auttums And A Widow

Notation Legend
h       hammer-on
p       pull-off
PM |--| Palm Mute
/       slide up
\       slide down

Tune both guitars down one whole step: DGCFAd

INTRO RIFF AT ( : ) 2xd|---------------------------------------------------|A|---------------------------------------------------|F|-4-4-4-4-4-4-4-4-4-4-4-4-4-4-4-4-4-4-4-4-4-4-4-----|C|-4-4-4-4-4-4-4-4-4-4-4-4-4-4-4-4-4-4-4-4-4-4-4-5-3-|G|-2-2-2-2-2-2-2-2-2-2-2-2-2-2-2-2-2-2-2-2-2-2-2-5-3-|D|-----------------------------------------------3-1-|
Play this after the intro-riff is played twice.d|-------------------------------------|A|-------------------------------------|F|-4-4-4-4-4-4-4-4-4-4-4-4-4-4-4-4-4-4-|C|-4-4-4-4-4-4-4-4-4-4-4-4-4-4-4-4-4-4-|G|-2-2-2-2-2-2-2-2-2-2-2-2-2-2-2-2-2-2-|D|-------------------------------------|
RIFF 1d|-------------------------------------------------|A|-------------------------------------------------|F|-------------------------------------------------|C|-4----------3-----------4-----------3------------|G|-4----------3-----------4-----------3------------|D|-2----------1-----------2-----------1------------|
4x -------------------------------------------------| -------------------------------------------------| -------------------------------------------------| -8-8-8-8-8-8-8-8-8-8-8-8-8-8-8-8-8-8-8-8-8-8-8-8-| -8-8-8-8-8-8-8-8-8-8-8-8-8-8-8-8-8-8-8-8-8-8-8-8-| -6-6-6-6-6-6-6-6-6-6-6-6-6-6-6-6-6-6-6-6-6-6-6-6-|
d|-------------------------------------------------|A|-------------------------------------------------|F|-------------------------------------------------|C|-3-3-3-3-3-3-3-3-3-3-3-3-3-3-3-3-3-3-3-3-3-3-3-3-|G|-3-3-3-3-3-3-3-3-3-3-3-3-3-3-3-3-3-3-3-3-3-3-3-3-|D|-1-1-1-1-1-1-1-1-1-1-1-1-1-1-1-1-1-1-1-1-1-1-1-1-|
2x -------------------------------------------------| -------------------------------------------------| -4-4-4-4-4-4-4-4-4-4-4-4-4-4-4-4-4-4-4-4-4-4-4-4-| -4-4-4-4-4-4-4-4-4-4-4-4-4-4-4-4-4-4-4-4-4-4-4-4-| -2-2-2-2-2-2-2-2-2-2-2-2-2-2-2-2-2-2-2-2-2-2-2-2-| -------------------------------------------------|
d|-------------------------------------------------|A|-------------------------------------------------|F|-------------------------------------------------|C|-3-----------------------------------------------|G|-3-----------------------------------------------|D|-1-----------------------------------------------|
2x -------------------------------------------------| -------------------------------------------------| -4-4-4-4-4-4-4-4-4-4-4-4-4-4-4-4-4-4-4-4-4-4-4-4-| -4-4-4-4-4-4-4-4-4-4-4-4-4-4-4-4-4-4-4-4-4-4-4-4-| -2-2-2-2-2-2-2-2-2-2-2-2-2-2-2-2-2-2-2-2-2-2-2-2-| -------------------------------------------------|Then play riff 1 again
SOLO-RIFF 1d|-------------------------------------------------|A|-------------------------------------------------|F|-------------------------------------------------|C|-5---5---5---7---8---8---8---8---8---5---7---7---|G|-------------------------------------------------|D|-------------------------------------------------|
4x -------------------------------------------------| -------------------------------------------------| -----7---7---7---5---5-------7---7---7---5---5---| -5-----------------------5-----------------------| -------------------------------------------------| -------------------------------------------------|
RIFF 3 (not sure about this)d|-------------------------------------------------|A|-------------------------------------------------|F|-------------------------------------------------|C|-------------------------------------------------|G|-5-5-5-5-5-5-5-5-3-3-1-1-------------------------|D|-------------------------5-5-5-5-5-5-5-5-5-5-5-5-|
-------------------------------------------------| -------------------------------------------------| -------------------------------------------------| -------------------------------------------------| -3-3-3-3-3-3-3-3-1-1-0-0-------------------------| -------------------------3-3-3-3-3-3-3-3-3-3-3-3-|
-------------------------------------------------| -------------------------------------------------| -------------------------------------------------| -7---7---7---7---8---7---7---7---7---7---8---7---| -7---7---7---7---8---7---7---7---7---7---8---7---| -5---5---5---5---6---5---5---5---5---5---6---5---|
4x -------------------------------------------------| -------------------------------------------------| -------------------------5---5---5---5---5---5---| -8---8---8---7---7---7---5---5---5---5---5---5---| -8---8---8---7---7---7---3---3---3---3---3---3---| -6---6---6---5---5---5---------------------------|
SOLO-RIFF 2d|-------------------------------------------------|A|-------------------------------------------------|F|-10---9-------10-9-----10-9-10---9-10-9---10-9---|C|----------7--------7---------------------------7-|G|-------------------------------------------------|D|-------------------------------------------------|
3x -------------------------------------------| -------------------------------------------| -9-7-9---7-9-7--9-7-----10-9-10---10---9---| --------------------7----------------------| -------------------------------------------| -------------------------------------------|Play Solo-Riff 1 Riff 3 Solo-Riff2
RIFF 4d|--------------------------------------------|A|--------------------------------------------|F|-7---7-7-7-7---7-7-7------------------------|C|-7---7-7-7-7---7-7-7-7---7-7-7-7---7-7-7-5--|G|-5---5-5-5-5---5-5-5-7---7-7-7-7---7-7-7-5--|D|---------------------5---5-5-5-5---5-5-5-3--| PM---| |-----| |-----| |---------|
4x ---------------------------------------------------| ---------------------------------------------------| -------------------------------5-------------------| -5-5-5-5---5-5-5-5-8---8-8-8-8-5-------------------| -5-5-5-5---5-5-5-5-8---8-8-8-8-3-------------------| -3-3-3-3---3-3-3-3-6---6-6-6-6---------------------| |-----| |-------| |----------------------------|
RIFF 5 (I really don't know how many times this is played)d|-----------------------------------------|A|-----------------------------------------|F|-----------------------------------------|C|-----------------------------------------|G|-----------------------------------------|D|-0-2p0-0-3p0---0-2p0-0-3p0---0-2p0-0-3p0-|Play riff 4 solo-riff 2
RIFF 6d|---------------------------------|A|---------------------------------|F|-3---5---7---5---7---5---3---2---|C|---------------------------------|G|---------------------------------|D|---------------------------------|
d|---------------------|A|---------------------|F|---------------------|C|-5---7---8---5---4---|G|-5---7---8---5---4---|D|-3---5---6---3---2---|
Please rate this tab:
x1.0