Cradle Of Filth - Swansong For A Raven tab

x2|-----------------|--------------------------------------------------|\|-----------------|--------------------------------------------------| \|-----------------|--------------------------------------------------| \|---7-6-7-9-7-6-7-|---7-6-7-9-7-6-7---7-6-7-9-7-6-7---7-6-7-9-7-11-9-| /x2|-9---------------|-7---------------5---------------7----------------| /|-----------------|--------------------------------------------------|/
Guitar 1 x2 x2 x2 x2|----------|----------|----------|----------|\|----------|----------|----------|----------| \|----------|----------|----------|----------| \|--7679767-|--7679767-|--7679767-|-76797119-| /x2|-9--------|-5--------|-7--------|9---------| /|----------|----------|----------|----------|/
Guitar 2
|---------------|---------------|---------------|---------------||---------------|---------------|---------------|---------------||---------------|---------------|---------------|---------------||---------------|---------------|---------------|---------------||-4--4-4-4--4-4-|-5--5-5-5--5-5-|-7--7-7-7--7-7-|-9--9-9-9--9-9-||-2--2-2-2--2-2-|-5--5-5-5--5-5-|-7--7-7-7--7-7-|-9--9-9-9--9-9-|
|-----------------|\|-----------------| \|-----------------| \|-----------------| /x3|-5p4p0h4h5/7p5p4-| /|-----------------|/
Guitar 1|-----------------|------------------|------------------|------------||-----------------|------------------|------------------|------------||-----------------|------------------|------------------|------------||---7----7~---7---|----7----6~---6---|----7----7~---7---|-7--7-6-333-||-8---8---------8-|-8----8---------7-|-8----8---------8-|-7--7-6-333-||-----------------|------------------|------------------|-5--7-4-111-|
Guitar 2
|-----------------|------------------|------------------|------------||-----------------|------------------|------------------|------------||-----------------|------------------|------------------|------------||-----------------|------------------|------------------|-7--7-6-333-||-7---------------|-6----------------|-7----------------|-7--7-6-111-||-5---------------|-4----------------|-5----------------|-5--5-4-111-|
Guitar 1&2|--------------------------------------------------------------------------||--------------------------------------------------------------------------||--------------------------------------------------------------------------||--------------------------------------------------------------------------||-----------------------------------------------------------101011p10888665||-88881010111110881010777788p774444333-888101011111010881010---------------|
Guitar 1 x2 x2 x2 x2|----------|----------|----------|----------|\|----------|----------|----------|----------| \|----------|----------|----------|----------| \|--7679767-|--7679767-|--7679767-|-76797119-| /x2|-9--------|-5--------|-7--------|9---------| /|----------|----------|----------|----------|/
Guitar 2
|---------------|---------------|---------------|---------------||---------------|---------------|---------------|---------------||---------------|---------------|---------------|---------------||---------------|---------------|---------------|---------------||-4--4-4-4--4-4-|-5--5-5-5--5-5-|-7--7-7-7--7-7-|-9--9-9-9--9-9-||-2--2-2-2--2-2-|-5--5-5-5--5-5-|-7--7-7-7--7-7-|-9--9-9-9--9-9-|
|-----------------|\|-----------------| \|-----------------| \|-----------------| /x2|-5p4p0h4h5/7p5p4-| /|-----------------|/
Guitar 1&2 x4 |---------------------------------| |---------------------------------||---------------------------------||-5\44-44-2/44-55-5\44--8-5-2-5---||-5\44-44-2/44-55-5\44--8-5-2-5---||-3\22-22-0/22-33-3\22--6-3-0-3---|
x3|------------------------------------------------||------------------------------------------------||------------------------------------------------||-5\4-4-4-44-2/4-4-4-44-5\4-4-4-44-8\5-2/5-------||-5\4-4-4-44-2/4-4-4-44-5\4-4-4-44-8\5-2/5-------||-3\2-2-2-22-0/2-2-2-22-3\2-2-2-22-6\3-0/3-------|
|------------------------------------------------||------------------------------------------------||------------------------------------------------||-5\4-4-4-44-2/4-4-4-44-3/10-3/5-12~\5-12\5------||-5\4-4-4-44-2/4-4-4-44-3/10-3/5-12~\5-12\5------||-3\2-2-2-22-0/2-2-2-22-1/8--1/3-10~\3-10\3------|
Guitar 1|-----------------|------------------|------------------|------------||-----------------|------------------|------------------|------------||-----------------|------------------|------------------|------------||---7----7~---7---|----7----6~---6---|----7----7~---7---|-7--7-6-333-||-8---8---------8-|-8----8---------7-|-8----8---------8-|-7--7-6-333-||-----------------|------------------|------------------|-5--7-4-111-|
Guitar 2
|-----------------|------------------|------------------|------------||-----------------|------------------|------------------|------------||-----------------|------------------|------------------|------------||-----------------|------------------|------------------|-7--7-6-333-||-7---------------|-6----------------|-7----------------|-7--7-6-111-||-5---------------|-4----------------|-5----------------|-5--5-4-111-|
Guitar 1&2 x2|--------------------------------------------------------------------------||--------------------------------------------------------------------------||--------------------------------------------------------------------------||--------------------------------------------------------------------------||-----------------------------------------------------------101011p10888665||-88881010111110881010777788p774444333-888101011111010881010---------------|
Guitar 1 x2 x2 x2 x2|----------|----------|----------|----------|\|----------|----------|----------|----------| \|----------|----------|----------|----------| \|--7679767-|--7679767-|--7679767-|-76797119-| /x2|-9--------|-5--------|-7--------|9---------| /|----------|----------|----------|----------|/
Guitar 2
|---------------|---------------|---------------|---------------||---------------|---------------|---------------|---------------||---------------|---------------|---------------|---------------||---------------|---------------|---------------|---------------||-4--4-4-4--4-4-|-5--5-5-5--5-5-|-7--7-7-7--7-7-|-9--9-9-9--9-9-||-2--2-2-2--2-2-|-5--5-5-5--5-5-|-7--7-7-7--7-7-|-9--9-9-9--9-9-|
|-----------------|\|-----------------| \|-----------------| \|-----------------| /x2|-5p4p0h4h5/7p5p4-| /|-----------------|/
Guitar 1&2 x4 |---------------------------------| |---------------------------------||---------------------------------||-5\44-44-2/44-55-5\44--8-5-2-5---||-5\44-44-2/44-55-5\44--8-5-2-5---||-3\22-22-0/22-33-3\22--6-3-0-3---|
x3|------------------------------------------------||------------------------------------------------||------------------------------------------------||-5\4-4-4-44-2/4-4-4-44-5\4-4-4-44-8\5-2/5-------||-5\4-4-4-44-2/4-4-4-44-5\4-4-4-44-8\5-2/5-------||-3\2-2-2-22-0/2-2-2-22-3\2-2-2-22-6\3-0/3-------|
|------------------------------------------------||------------------------------------------------||------------------------------------------------||-5\4-4-4-44-2/4-4-4-44-3/10-3/5-12~\5-12\5------||-5\4-4-4-44-2/4-4-4-44-3/10-3/5-12~\5-12\5------||-3\2-2-2-22-0/2-2-2-22-1/8--1/3-10~\3-10\3------|
Guitar 1|------------------------------||------------------------------||------------------------------||-9---7---7--------------9-4---||---7---5---7--10-9h10-7-----5-||------------------------------|
Guitar 1&2 x2|-----------------------------------------------------||-----------------------------------------------------||-4\--------------------------------------------------||----4h5-5p4h5/7--10-99-9h10p9-9-9-9-9-9b-9br(7)\-----||-----------------------------------------------------||-----------------------------------------------------|
Guitar 1|----------------------------------|\|----------------------------------| \|----------------------------------| \|-9---7---7------------------------| \|---7---5---5----------------------| \|----------------------------------| \
\Guitar 2 /x6|----------------------------------| /|----------------------------------| /|------------------------------3ph-| /|-2----5----7----------------------| /|-2----5----7----3-2h3p2-0-5-3-----| /|-0----3----5----------------------|/
Guitar 1&2 |----------------------------------------------------------------------------------------|\|----------------------------------------------------------------------------------------| \|----------------------------------------------------------------------------------------| \|-9-9-9-9-7-7-5-5h7p-5/4-4-4-4-5-5-4-5-4-7-7-7-7-5-5-7-5---------------------------------| /x2|--------------------------------------------------------3-3-3-3-------------------------| /|---------------------------------------------------------------3-2-3-5-3-2-3-2-3-5-3-2--|/
Guitar 1|--------------------------||--------------------------||----------------------<3>-||--------------------------||---------3-2h3p2-0-5-3----||--------------------------|
Guitar 1|-------------------------12---------12-11---------------||-7-10-9-10-9-12-10-9-10-----12---12-------9--9-11-12-11-||--------------------------------------------------------||--------------------------------------------------------||--------------------------------------------------------||--------------------------------------------------------|
|-10---------10---------------------------||----11---11----14--10----10-12-13-12---5-||-----------------------------------------||-----------------------------------------||-----------------------------------------||-----------------------------------------|
Tap to rate this tab
 
# A B C D E F G H I J K L M N O P Q R S T U V W X Y Z