Craigs Brother - Dear Charlotte tab

Dear Charlotte - Craigs Brother


Tuning: D#

Verse 1 Both Gtrís-|-----------------------------|-|-----------------------------|-|-----------------------------|-|-9-----5-----7-----888-7-8---|-|-9-12--5-12--7-12--888-7-8-6-|-|-7-----3-----5-----666-5-6---|
-|---------------------------|-|---------------------------|-|---------------------------|-|-9-----5-----7-----8888----|-|-9-12--5-12--7-12--8888----|-|-7-----3-----5-----6666-x\-|
Post Verse 1 Both Gtrís-|------------------------|------------------------|-|------------------------|------------------------|-|------------------------|-------------7---6---44-|-|-55-xxxx-77--44-xxxx-55-|-55-xxxx-55--7-r-6-r-44-|-|-55-xxxx-77--44-xxxx-55-|-55-xxxx-55--5---4---22-|-|-33-xxxx-55--22-xxxx-33-|-33-xxxx-33-------------|
-|------------------------|-----------------------|-|------------------------|-----------------------|-|------------------------|-----------------------|-|-55-xxxx-77--44-xxxx-55-|-55-xxxx-77--888-7-888-|-|-55-xxxx-77--44-xxxx-55-|-55-xxxx-77--888-7-888-|-|-33-xxxx-55--22-xxxx-33-|-33-xxxx-55--666-5-666-|
Pre Chorus 1 Gtr 1-|-----------------------------------------|-|-----------------------------------------|-|------7----------------------------------|-|-9----7-6--5----7----5----7----888-7-888-|-|-9-6--5----5-6--7-6--5-6--7-6--888-7-888-|-|-7---------3----5----3----5----666-5-666-|
Gtr 2-|-------------------------------------------|-|-------------------------------------------|-|------7------------------------------------|-|-9----7-6--5----7----5----7----888-7-88----|-|-9-6--5----5-6--7-6--5-6--7-6--888-7-88----|-|-7---------3----5----3----5----666-5-66-x\-|
Pre Chorus 2 Gtr 1-|------------------------|------------------------------|-|------------------------|------------------------------|-|------------------------|-77-xxxx-999--111111-9-111111-|-|-55-xxxx-77--44-xxxx-55-|------------------------------|-|-55-xxxx-77--44-xxxx-55-|------------------------------|-|-33-xxxx-55--22-xxxx-33-|------------------------------|
Gtr 2-|------------------------|-----------------------|-|------------------------|-----------------------|-|------------------------|-----------------------|-|-55-xxxx-77--44-xxxx-55-|-55-xxxx-77--999-7-999-|-|-55-xxxx-77--44-xxxx-55-|-55-xxxx-77--999-7-999-|-|-33-xxxx-55--22-xxxx-33-|-33-xxxx-55--777-5-777-|
Chorus Gtr 1-|---------------------------------|-------------------------------------|-|---------------------------------|-------------------------------------|-|-4-22-7-77-6-66-4-----66--7-6----|-4-44-7-77-6-66-4-----66--7-6----9---|-|------------------18----------12-|------------------18----------6----6-|-|-2-22-5-55-4-44-2----/44-/5\4----|-2-22-5-55-4-44-2----/44-/5\4---/7---|-|---------------------------------|-------------------------------------|
Gtr 2-|---------------------x2-|-|------------------------|-|------------------------|-|-9-----5-----7-----8----|-|-9-12--5-12--7-12--8-12-|-|-7-----3-----5-----6----|
Verse 2 Both Gtrís-|-----------------------------|-|-----------------------------|-|-----------------------------|-|-9-----5-----7-----888-7-8---|-|-9-12--5-12--7-12--888-7-8-6-|-|-7-----3-----5-----666-5-6---|
-|----------------------------|-|----------------------------|-|----------------------------|-|-9-----5-----7-----888-7-88-|-|-9-12--5-12--7-12--888-7-88-|-|-7-----3-----5-----666-5-66-|
Post Verse 2 Gtr 1-|------------------------|-------------------------|-|------------------------|-------------------------|-|------------------------|-------------11--9--7--6-|-|-55-xxxx-77--44-xxxx-55-|-55-xxxx-77--------------|-|-55-xxxx-77--44-xxxx-55-|-55-xxxx-77---9-\7-\5-\4-|-|-33-xxxx-55--22-xxxx-33-|-33-xxxx-55--------------|
Gtr 2-|------------------------|---------------------|-|------------------------|---------------------|-|------------------------|---------------------|-|-55-xxxx-77--44-xxxx-55-|-55-xxxx-77--9-9-9-9-|-|-55-xxxx-77--44-xxxx-55-|-55-xxxx-77--9-9-9-9-|-|-33-xxxx-55--22-xxxx-33-|-33-xxxx-55--7-7-7-7-|
Pre Chorus 1 Pre Chorus 2 Chorus
Bridge Gtr 1-|--------------------|----------------------------------------|-|--------------------|----------------------------------------|-|-7----7----6----6---|-7----7----7-9-6----6----3-----9-9-11---|-|---r----r----r----r-|---r----r--------r----r----r----------r-|-|-5----5----4----4---|-5----5----5/7-4----4----1----/7-7/-9---|-|--------------------|----------------------------------------|
Gtr 2-|--------------------|--------------------|-|--------------------|--------------------|-|--------------------|--------------------|-|-9----5----7----8---|-9----5----7----4---|-|-9-r--5-r--7-r--8-r-|-9-r--5-r--7-r--4-r-|-|-7----3----5----6---|-7----3----5----2---|
Outro 1 Gtr 1-|---------------------|--------------------------------------|-|---------------------|--------------------------------------|-|---------------------|-7777-9999-11-11111111-11-11111111-11-|-|-5555-7777-4444-5555-|--------------------------------------|-|-5555-7777-4444-5555-|-5555-7777--9--9-9-9-9--9--9-9-9-9--9-|-|-3333-5555-2222-3333-|---------------*-*-*-*-----*-*-*-*----|
Gtr 2-|---------------------|---------------------------|-|---------------------|---------------------------|-|---------------------|---------------------------|-|-5555-7777-4444-5555-|-5555-7777-9------9------9-|-|-5555-7777-4444-5555-|-5555-7777-9-9999-9-9999-9-|-|-3333-5555-2222-3333-|-3333-5555-7-7777-7-7777-7-|
**** **** Outro 2 Both Gtrís-|---------------------|-------------------|-|---------------------|-------------------|-|---------------------|-------------------|-|-5555-7777-4444-5555-|-5555-7777-8888----|-|-5555-7777-4444-5555-|-5555-7777-8888----|-|-3333-5555-2222-3333-|-3333-5555-6666-x\-|
Outro 3 Both Gtrís -|-------------------------------------|-|-------------------------------------|-|------7777---------------------------|-|-9999-7777-5555-7777-5555-7777-88888-|-|-9999-5555-5555-7777-5555-7777-88888-|-|-7777------3333-5555-3333-5555-66666-|
Outro 4 Gtr 1-|---------------------|-----------------------|-|---------------------|-----------------------|-|---------------------|-----------11--9--7--6-|-|-5555-7777-4444-5555-|-5555-7777-------------|-|-5555-7777-4444-5555-|-5555-7777--9-\7-\5-\4-|-|-3333-5555-2222-3333-|-3333-5555-------------|
Gtr 2-|---------------------|-------------------|-|---------------------|-------------------|-|---------------------|-------------------|-|-5555-7777-4444-5555-|-5555-7777-9-9-9-9-|-|-5555-7777-4444-5555-|-5555-7777-9-9-9-9-|-|-3333-5555-2222-3333-|-3333-5555-7-7-7-7-|
Outro 5 Gtr 1-|----------------|-|----------------|-|-----------7777-|-|-5555-7777------|-|-5555-7777-5555-|-|-3333-5555------|
Gtr 2-|----------------|-|----------------|-|----------------|-|-5555-7777-9999-|-|-5555-7777-9999-|-|-3333-5555-7777-|
Tap to rate this tab
 
# A B C D E F G H I J K L M N O P Q R S T U V W X Y Z