Steppin Out tab with lyrics by Cream - Easy chords and tabs for guitar

Cream – Steppin Out tab

SONG: STEPPIN' OUT
ARTIST: CREAM
TUNNING: STANDARD
TABBED BY: INDIE NATION


Guitar 1: Eric Clapton 

Intro:

Gm|-------------------|------------------------|---------------------||-------------------|------------------------|---------------------||----3---3b3.5--5-3-|-5b7==(5)r--5-3-5-3-----|---------------------||-5----5------------|--------------------5-3-|-5----5-(5)-0-3-0-3--||-------------------|------------------------|---------------------||-------------------|------------------------|---------------------|
Dm|-----------------|---------------|------------------------||-----------------|---------------|------------------------||-----------------|---------------|------------------------||-5----5-(5)\-----|----3---3--5-3-|-5b7==(5)r--5-3-5p3-----||-----------------|-5----5--------|--------------------5p3-||-----------------|---------------|------------------------|
Gm|--------------------|-----------------|-------------------||--------------------|-----------------|-------------------||--------------------|-----------------|----3---3b3.5--5-3-||--------------------|-----------------|-5----5------------||-5----5-(5)-0-3p0-3-|-5----5-(5)\-----|-------------------||--------------------|-----------------|-------------------|
|------------------------|--------------------|------------------|||------------------------|--------------------|------------------|||-5b7==(5)r--5-3-5-3-----|--------------------|--------------3---|||--------------------5-3-|-5----5-(5)-0-3-0-3-|-5----5-(5)-5-----|||------------------------|--------------------|------------------|||------------------------|--------------------|------------------||
Gm ~~~~ ~~|------------------|--------------|-----------------|----------||------------------|--------------|-----------------|----8-----||-5b7==(5)r--------|---\6-5-3-5-3-|------3b3.5------|----------||------------------|--------------|-5---------------|----------||------------------|--------------|-----------------|----------||------------------|--------------|-----------------|----------|
C Gm ~~~|------------|------------|------------------------------||-(8)--------|-(8)--------|-13b15==(13)r--11b11.5--------||------------|------------|------------------------------||------------|------------|------------------------------||------------|------------|------------------------------||------------|------------|------------------------------|
D ~|---------------------------------------|----------------||-11b13==(11)r=(11)--8---8-10b11==(10)r-|----8--10-------||----------------------9----------------|----------------||---------------------------------------|----------------||---------------------------------------|----------------||---------------------------------------|----------------|
C Gm |--3--| |-3--||--------------------|----------------------|---------3------------------|||--------------------|------------------3---|-------3--------------------|||---\5----5---3b3.5--|----3---5b7==(5)r-----|---5h7-----5b7==(5)r(5)p3---|||-----------5--------|-5--------------------|--------------------------5-|||--------------------|----------------------|----------------------------|||--------------------|----------------------|----------------------------||
|-3-| |-3-||-------------------|-----------------------|----------------------||-----------------6-|-6-6-6-----------------|----------------------||-5p3---------5s7---|-------7s5p3-5p3---5-3-|----3b3.5-------------||-----5p3-5---------|-----------------5-----|-5--------5-----------||-------------------|-----------------------|------------5s3p1-3p1-||-------------------|-----------------------|----------------------|
C ~ |-------3-------||---------------|---------------10--------|----------------------------||------8----8---|-10b12==(10)r-------8----|---11b13==(11)r-11-8-10---8-||---------------|-------------------------|------------------------9---||---------------|-------------------------|----------------------------||---------------|-------------------------|----------------------------||-8-------------|-------------------------|----------------------------|
Gm ~ |3-| |-----3-----||----------------------------|------------------------------||-10-10pb11r(10)p8-(8)h=10---|----13pb15r(13)p11-13----11---||----------------------------|----------------------12------||----------------------------|------------------------------||----------------------------|------------------------------||----------------------------|------------------------------|
D|---------------------------------------||-13b15==(13)r---11b11.5-----11b11.5----||-------------------------12------------||---------------------------------------||---------------------------------------||---------------------------------------|
|-------------13-------------------||-13b15==(13)----13r---13p11-------||----------------------------12p11-||----------------------------------||----------------------------------||----------------------------------|
Gm ~~ |-----3-----| |---3----||------------------------------------|------------------------|||-----11---13pb15r(13)p11-13-11b11.5-|------------------------|||-12---------------------------------|----5pb7r(5)p3-5p3------|||------------------------------------|-------------------5----|||------------------------------------|------------------------|||------------------------------------|------------------------||
~ |---3----||------------------|--------------------------------|-3------------------||------------------|------------------------------3-|--------------------||------------------|-3-5-5pb6r(5)p3-5-3-5b7==(5)r---|---3b3.5--------3---||-5----5-(5)---3h5-|--------------------------------|---------5-3-5------||------------5-----|--------------------------------|--------------------||------------------|--------------------------------|--------------------|
|---------------------------------||-------------3-6-3-----------3-6-||---5b7==(5)r-------5b7==(5)r-----||---------------------------------||---------------------------------||---------------------------------|
C |-3-||---------------------------|---3-------------||-3-------------------------|---3-------------||---5b7==(5)r-5-3-5p3---5-3-|---------5-3-----||---------------------5-----|-------5-----5-3-||---------------------------|-----------------||---------------------------|-----------------|
Gm D|---3-------------|---3-------------|---3--------------||---3-------------|---3-------------|---3--------------||---------5-3-----|---------5-3-----|---------5-3-5s7--||-5-----5-----5-3-|-5-----5-----5-3-|-5-----5----------||-----------------|-----------------|------------------||-----------------|-----------------|------------------|
Gm|------3-----------|------------------|-----------------|||----------6p3-----|------------------|-----------------|||-(7)----------5p3-|----3-------------|-----------------|||------------------|-5----5-----------|-----------------|||------------------|--------5s3p1-3---|-1----3-(3)p1----|||------------------|----------------3-|--------------3--||
|-----------------|-----------------|-----------------|------------------||-----------------|-----------------|-----------------|------------------||-----------------|-----------------|-----------------|------------------||------5-(5)--3---|------5-(5)--3---|------5-(5)--3---|------5-(5)--3----||-----------------|-----------------|-----------------|------------------||-3---------------|-3---------------|-3---------------|-3----------------|
C Gm|-----------------|-----------------|-----------------|------------------||-----------------|-----------------|-----------------|------------------||------5-(5)--3---|------5-(5)--3---|-----------------|------------------||-----------------|-----------------|------5-(5)--3---|------5-(5)--3----||-3---------------|-3---------------|-----------------|------------------||-----------------|-----------------|-3---------------|-3----------------|
D C Gm|-----------------|-----------------|-----------------|------------------|||-----------------|-----------------|-----------------|------------------|||------7-(7)--5---|------5-(5)--3---|-----------------|------------------|||-----------------|-----------------|------5-(5)--3---|------5-(5)--3----|||-5---------------|-3---------------|-----------------|------------------|||-----------------|-----------------|-3---------------|-3----------------||
~ ~|------------|------------|-----------------||------------|-6s8--------|-11b11.5---------||-5s7--------|------------|-----------------||------------|------------|-----------------||------------|------------|-----------------||------------|------------|-----------------|
C |---3---| |3-||-----------------------------|----------------||----15b17==(15)--(15)r-13-11-|-13-11--(11)----||-----------------------------|----------------||-----------------------------|----------------||-----------------------------|----------------||-----------------------------|----------------|
Gm |-----3-----| |------3-------||-------------------------------------|------------------------------||----11b13==(11)--(11)r-11pb12-11pb13-|-11pb12-11pb13r(11)-11pb13r===||-------------------------------------|------------------------------||-------------------------------------|------------------------------||-------------------------------------|------------------------------||-------------------------------------|------------------------------|
D|------------------------|-------------------------------------||-(11)--------------11---|-13b15==(13)r--11b11.5-------13b15===||-------12--(12)-12------|-------------------------------------||------------------------|-------------------------------------||------------------------|-------------------------------------||------------------------|-------------------------------------|
C |---3---||------13---------------------------||-(13)----13r(13)-11-13----11b11.5--||-----------------------12----------||-----------------------------------||-----------------------------------||-----------------------------------|
Gm ~~ ~~~~~~ |--3--||--------------------15-----|-(15)-----15-------|||-----11b11.5--------18b20==|=(18)r-------18-15-|||-12------------------------|-------------------|||---------------------------|-------------------|||---------------------------|-------------------|||---------------------------|-------------------||
|--------------15-----------------------------||-18b20==(18)r----18-15-----------------------||-----------------------17b19==(17)r-17-15----||------------------------------------------17-||---------------------------------------------||---------------------------------------------|
|----3-----| |--3--| |-3--| |--3---||----------------------------------------|----------------------------------------||-----------------------15---------------|----------------------------------------||-17----15h17b19==(17)r----17p15----17---|---17b19==(17)r(17)-15-------15b15.5----||----17--------------------------17------|-----------------------17-17------------||----------------------------------------|----------------------------------------||----------------------------------------|----------------------------------------|
C ~~ |----3----| |--3--||---18b20==(18)r--18pb19---18pb20-18pb19-|-18pb20-18b20==(18)r-18-18--15-------||----------------------------------------|-------------------------------18p15-||----------------------------------------|-------------------------------------||----------------------------------------|-------------------------------------||----------------------------------------|-------------------------------------||----------------------------------------|-------------------------------------|
|---3----| |--3--| |----3-----| |--3--||--------------------------------------------------------||----------------------------------------------15h18p15--||-17b19==(17)r(17)-15-17p15----15h17b19==(17)r-----------||---------------------------17---------------------------||--------------------------------------------------------||--------------------------------------------------------|
|------3------| |--3---||---------------------------------------------||----15---------------------------------------||-17----17b19==(17)r(17)p15----15b15.5--------||---------------------------17---------17-----||-----------------------------------------17--||---------------------------------------------|
D|-----------------------------------|--------------------------||------15b17==(15)--(15)r=(15)b17===|=(15)r----15-(15)-----15--||-----------------------------------|-------------------17-----||-----------------------------------|--------------------------||-(17)------------------------------|--------------------------||-----------------------------------|--------------------------|
C ~~|--------------------------------|---------------------------------||---17b18.5==(17)r---17p15----15-|---------------------18b20==(18)-||--------------------------17----|-15b15.5-------------------------||--------------------------------|----------17---17----------------||--------------------------------|---------------------------------||--------------------------------|---------------------------------|
|---------------------------------------|||-(18)-18-18-18r-18b20==(18)-18-18-18r--|||---------------------------------------|||---------------------------------------|||---------------------------------------|||---------------------------------------||
|------3------||-------------------------------------------||-18b20==(18)---18r---18pb19-18pb20-18b18.5-||-------------------------------------------||-------------------------------------------||-------------------------------------------||-------------------------------------------|
~~ |----3----| |--3--||------------------------------------|--------------------------||-18pb20-18-15-----------------------|-15-----------------------||--------------17b19==(17)r-17-15-17-|----15h17p15----------15--||------------------------------------|-------------17----17-----||------------------------------------|----------------17--------||------------------------------------|--------------------------|
C ~ |-------3-------||-------0---------|-------------------------|---10b12==(10)r-10-8---------||-------0--8--8---|-10b11==(10)r==(10)-8----|---------------------11-8-10-||-(15)------------|-------------------------|-----------------------------||-----------------|-------------------------|-----------------------------||-----------------|-------------------------|-----------------------------||-----------------|-------------------------|-----------------------------|
Gm|------------------10-----------------||---8-10b12==(10)r----10b12==(10)r----||-9-----------------------------------||-------------------------------------||-------------------------------------||-------------------------------------|
D|-------------------------|-----------------------------||------10pb11r(10)p8-10---|-8---10---10b12==(10)r-------||-----------------------9-|--------------------------0--||-------------------------|-----------------------------||-------------------------|-----------------------------||-------------------------|-----------------------------|
C Gm |--------------------|------------|----------|||--------------------|------------|----------|||---3-5-0-3b3.5------|------------|----------|||----------------5p3-|-5----------|----------|||--------------------|------------|----------|||--------------------|------------|----------||
G ~~~~~~~~~|-------------------|----------*||-------------------|----------*||------[4]-([4])----|-([4])----*||-5-----------------|----------*||-------------------|----------*||-------------------|----------*|
Please rate this tab:
x1.0