Creature Feature – The House Of Myth tab

INTRO

E||------------------------------------------------|B||--10----10--13--12--10--13--12--10--13--12--10--|G||------------------------------------------------|D||------------------------------------------------|A||------------------------------------------------|E||------------------------------------------------|
|--12--10--------------------||----------12--13----10--12--||----------------------------||----------------------------||----------------------------||----------------------------|
|------------------------------------------------||--10----10--13--12--10--13--12--10--13--12--10--||------------------------------------------------||------------------------------------------------||------------------------------------------------||------------------------------------------------|
|--------------------------||-------------12b------12--||--10--9--10---------------||--------------------------||--------------------------||--------------------------|
2x |-------------------------|-----------------------||-------------------------|-----------------------||-------------------------|--------9----8---------||--7----10----9--7--6--7--|--L--7----------9------||-------------------------|--------7----6---------||--5-----8----7--5--4--5--|--L--5----------7------|
KEYBOARD VERSE 1
I tried to warn you~ PM PM PM PM PM PM PM PM PM PM PM PM PM PM PM PM |------------------------------|--------------------------||------------------------------|--------------------------||------------------------------|--------------------------||------------------------------|--------------------------||--7--7--7--7--10--10--10--10--|--9--9--9--9--6--6--6--6--||--5--5--5--5---8---8---8---8--|--7--7--7--7--4--4--4--4--|
PM PM PM PM PM PM PM PM PM PM PM PM |------------------------------|--------------------------||------------------------------|--------------------------||------------------------------|--------------------------||------------------------------|--------------------------||--7--7--7--7--10--10--10--10--|--9--9--9--9--6-----6-----||--5--5--5--5---8---8---8---8--|--7--7--7--7--4-----4-----|
2x |-------------------------|-----------------------||-------------------------|-----------------------||-------------------------|--------9----8---------||--7----10----9--7--6--7--|--L--7----------9------||-------------------------|--------7----6---------||--5-----8----7--5--4--5--|--L--5----------7------|
KEYBOARD VERSE 2
I tried to warn you~ PM PM PM PM PM PM PM PM PM PM PM PM PM PM PM PM |------------------------------|--------------------------||------------------------------|--------------------------||------------------------------|--------------------------||------------------------------|--------------------------||--7--7--7--7--10--10--10--10--|--9--9--9--9--6--6--6--6--||--5--5--5--5---8---8---8---8--|--7--7--7--7--4--4--4--4--|
PM PM PM PM PM PM PM PM PM PM PM PM |------------------------------|--------------------------||------------------------------|--------------------------||------------------------------|--------------------------||------------------------------|--------------------------||--7--7--7--7--10--10--10--10--|--9--9--9--9--6-----6-----||--5--5--5--5---8---8---8---8--|--7--7--7--7--4-----4-----|
2x |-------------------------|-----------------------||-------------------------|-----------------------||-------------------------|--------9----8---------||--7----10----9--7--6--7--|--L--7----------9------||-------------------------|--------7----6---------||--5-----8----7--5--4--5--|--L--5----------7------|
Abandon hope all who enter here~ |--------------------------|------------------------------||--------------------------|------------------------------||--------------------------|------------------------------||--------------------------|------------------8--8--8--8--||--7--7--7--7--9--9--9--9--|--10--10--10--10--6--6--6--6--||--5--5--5--5--7--7--7--7--|---8---8---8---8--------------|
|------------------------|------------------------||------------------------|------------------------||------------------------|------------------------||------------------------|------------------------||--------7--6----6-------|--------7--6----6-------||--5--8---------------0--|--5--8---------------0--|
Those who ignored simply disappeared~|--------------------------|------------------------------||--------------------------|------------------------------||--------------------------|------------------------------||--------------------------|------------------8--8--8--8--||--7--7--7--7--9--9--9--9--|--10--10--10--10--6--6--6--6--||--5--5--5--5--7--7--7--7--|---8---8---8---8--------------|
|------------------------|------------------------||------------------------|------------------------||------------------------|--------9--8----8-------||------------------------|--7--10--------------7--||--------7--6----6-------|------------------------||--5--8---------------0--|------------------------|
|----------12-------------||--10--13-----------------||-------------------------||-------------------------||-------------------------||-------------------------|
PM PM PM PM PM PM |---------------------------|--------------------------||---------------------------|--------------------------||---------------------------|--------------------------||--------10-----9--7--6--7--|-----7-----6-----6--6--7--||--0--0------0--------------|--0-----0-----0-----------||---------------------------|--------------------------|
PM PM PM PM PM |---------------------------|--------------------------||---------------------------|--------------------------||---------------------------|-----------10---10--10--9-||--L-----10-----9--7--6--7--|-----7--------------------||-----0------0--------------|--0-----0-----0-----------||---------------------------|--------------------------|
2xThey're gonna have to scrape you~ PM PM PM PM PM PM |---------------------------|--------------------------||---------------------------|--------------------------||--L------------------------|--------------------------||--------10-----9--7--6--7--|-----7-----6-----6--6--7--||-----0------0--------------|--0-----0-----0-----------||---------------------------|--------------------------|
PM PM PM PM PM |---------------------------|--------------------------||---------------------------|--------------------------||---------------------------|-----------10---10--10--9-||--L-----10-----9--7--6--7--|-----7--------------------||-----0------0--------------|--0-----0-----0-----------||---------------------------|--------------------------|
All that you will find~ |---------------------|---------------------||---------------------|---------------------||--14--------9--------|--9--------10--------||---------------------|---------------------||--12--------7--------|--7---------8--------||---------------------|---------------------|
|-------------------|----------------------||-------------------|----------------------||--9----------------|--9----7----5----4----||-------------------|----------------------||--7----------------|--7----5----3----2----||-------------------|----------------------|
Repeat all with 1 verse.
|--------------------------|--------------------------||--------------------------|--------------------------||--------------------------|--------------------------||--------7--7--------7-----|--------3--3--------3-----||--------------------------|--------------------------||--5--5--------5--5--------|--1--1--------1--1--------|
|---------------------------------|----------------------------------||---------------------------------|----------------------------------||---------------------------------|----------------------------------||----------12--12----------12-----|----------------------------------||---------------------------------|------------------13--13--12--12--||--10--10----------10--10---------|--10--10--13--13------------------|
3xIn-side this place~|--------------------------|--------------------------||--------------------------|--------------------------||--------------------------|--------------------------||--------7--7--------7-----|--------3--3--------3-----||--------------------------|--------------------------||--5--5--------5--5--------|--1--1--------1--1--------|
|---------------------------------|----------------------------------||---------------------------------|----------------------------------||---------------------------------|----------------------------------||----------12--12----------12-----|----------------------------------||---------------------------------|------------------13--13--12--12--||--10--10----------10--10---------|--10--10--13--13------------------|
You, have sealed your fate~|--------------------------|--------------------------||--------------------------|--------------------------||--------------------------|--------------------------||--------7--7--------7-----|--------3--3--------3-----||--------------------------|--------------------------||--5--5--------5--5--------|--1--1--------1--1--------|
|---------------------------------||---------------------------------||---------------------------------||--12-----------------------------||---------------------------------||--10-----------------------------|
All that you will find~ |---------------------|---------------------||---------------------|---------------------||--14--------9--------|--9--------10--------||---------------------|---------------------||--12--------7--------|--7---------8--------||---------------------|---------------------|
|-------------------|----------------------|----------------------||-------------------|----------------------|----------------------||--9----------------|--9----7----5----4----|--2-------------------||-------------------|----------------------|----------------------||--7----------------|--7----5----3----2----|--0-------------------||-------------------|----------------------|----------------------|
Please rate this tab:
x1.0