Creed - Away In Silence tab

Creed - Walk Away in Silence	(tabbed by 2Luke -Raiwaqa kido)
----------------------------	  Nov-02-09.

BEST SONG ON FULL CIRCLE in my opinion!

I love that Stapp wrote this about his wife who almost left him
and him explaining he has changed.
That was why he cut his hair so that his wife may look at him
with different eyes.
But he really has changed.
_______________________________________________

TUNING (low-high)
------

 B-E-B-E-G#-B

how to tune:
- first drop 1 and a half steps down from standard.
- then drop strings 1, 5, and 6, down a whole step (2 half steps).

_______________________________________________

Note:
- all the parts are here
- just repeat as necessary


Intro/Verse
-----------
     
EB |-------------------------------------------|G#|--12----------10--12--12s--13--12----10----|E |--------0----------------------------------|B |-------------------------------------------|E |---0-------0-------------------------------|B |-------------------------------------------|
B6|----------------------------------------0----||---12-----------10--12--12h--13--------------||---------0---------------------------0-------||---------------------------------------------||---11-------11-------------------11----------||---------------------------------------------|
D6|---------------------------------------0----||---10-----------8--10--10h--12--------------||---------0--------------------------0-------||--------------------------------------------||---10-------10------------------10----------||--------------------------------------------|
A9|--------------0-------------0-------||---5-------------5------------------||--------0-----------0---------------||------------------------------------||---5-------5-------------5-----0----||------------------------------------|
E|--------------------------------------------||---12----------10--12--12s--13--------13----||---------0-------------------------0--------||--------------------------------------------||----0-------0-------------------0-----------||--------------------------------------------|
B6|----------------------0------------------||---15-------------15-----------13--12----||---------0-----0-------------------------||-----------------------------------------||---11----------------------11------------||------------0----------------------------|
D6|---------------------------------------0----||---10-----------8--10--10h--12--------------||---------0--------------------------0-------||--------------------------------------------||---10-------10------------------10----------||--------------------------------------------|
A9|--------------0-------------0-------||---5-------------5------------------||--------0-----------0---------------||------------------------------------||---5-------5-------------5-----5----||------------------------------------|
|--------------0-------------0-------||---5-------------5------------------||--------0-----------0---------------||------------------------------------||---5-------5-------------5-----5----||------------------------------------|
Am9|--------------0-------------0-------||---4-------------4------------------||--------0-----------0---------------||------------------------------------||---5-------5-------------5-----5----||------------------------------------|
|-----------------------------|||---4-------------------------|||-----------------------------|||-----------------------------|||---5-------------------------|||-----------------------------||
Chorus ||* repeat *|| ------ ||* sign *||
Esus B11||---0------------------------|---0------------------------|||---3------------------------|---3------------------------||*---2------------------------|---2------------------------||*---0------------------------|---4------------------------|||---0------------------------|---2------------------------|||----------------------------|---0------------------------| Dont give up on us... Dont give up on love
C#m7 A9 ---0--------------------------|---0-----------------0-------||---3--------------------------|---3-----------------5-------||---0--------------------------|---0-----------------0-------*|---2--------------------------|---2-----------------x-------*|(x3)---4--------------------------|---4-----------------5-------||------------------------------|-----------------------------||Dont give up on us, Dont give up on love
C#m7 A9 ---0--------------------------|---0-------------------------|---3--------------------------|---5-------------------------|---0--------------------------|---0-------------------------|---2--------------------------|---x-------------------------|---4--------------------------|---5-------------------------|------------------------------|-----------------------------| Dont you walk away in silence
Transition ( do this after 2nd chorus ) ----------
A9---0-------------------------|---0------------------------|---5-------------------------|---5------------------------|---0-------------------------|---0------------------------|---x-------------------------|---x------------------------|---5-------------------------|---5------------------------|-----------------------------|----------------------------|Dont you walk away in silence please come back to me...
Am9---0-------------------------|---0-------------------------|---4-------------------------|---4-------------------------|---0-------------------------|---0-------------------------|---x-------------------------|---x-------------------------|---5-------------------------|---5-------------------------|-----------------------------|-----------------------(15)\-|Don't you walk away in silence I'm not the man i used to be
Bridge ------
D3 C#3||---------------------------|----------------------------|||---------------------------|----------------------------||*---------------------------|----------------------------||*---10----------------------|---9------------------------|||---10----------------------|---9------------------------|||---10----------------------|---9------------------------| And I pray that tomorrow...
E5|-------------------------------------------------|||-------------------------------------------------|||---7--------------------------------------9------*||---x--------------------------------------x------*|(x3)|---7--------------------------------------9------|||-------------------------------------------------|| we can rebuild and forever... we can go on...
D3 C#3|---------------------------|----------------------------||---------------------------|----------------------------||---------------------------|----------------------------||---10----------------------|---9------------------------||---10----------------------|---9------------------------||---10----------------------|---9------------------------|bring you home home
E A9|---------------------------|---------------0--0--0-------||---------------------------|---------------5--5--5-------||---12--12--12--14--14--14--|--16--16--16---0--0--0-------||---x---x---x---x---x---x---|--x---x---x----x--x--x-------||---12--12--12--14--14--14--|--16--16--16---5--5--5-------||---------------------------|-----------------------------|bring you home
(repeat Chorus) (repeat Transition) (End with Intro/Verse picking) ____________________________________________________________ Hope you enjoyed! Please rate/comment (also youtube 2Luke) Tabbed by 2Luke: kid©2009™ Shoutout to Sem_Sp8.
Tap to rate this tab
 
# A B C D E F G H I J K L M N O P Q R S T U V W X Y Z