Creed - Opspeculate tab

Creed Rare Acoustic Guitar
Opspeculate Written By Jason Empey aka "The RockSTAR"                               


{www.sourcepromo.com/rockstar}
Jason Empey [e-mail jason@sourcepromo.com]

Track 1
This is the main parts of all three guitars in Opspeculate broken down into one tab. 
Play along with the song at the same time to get the feel.
Hope this helps. More Details at the bottom...



                                                             
D||------0---------0---------0--|-----0---------0-----------|A||---------0---------0---------|--------0---------0--------|G||--10------------------10-----|--9------------------9--7--|D||------------12---------------|-----------10--------------|A||-----------------------------|---------------------------|D||-----------------------------|---------------------------|
--0--------0--------0-----|-----0-----0--0----0----|-----0--------0--------0--|--------0---------------|--------------------------|-----------5/-7----7----|--------7--------0--------|--7---------------------|--------------------------|------------------------|--------------------------|------------------------|
------0---------0---------0--|-----0---------0-----------|---------0---------0---------|--------0---------0--------|--10------------------10-----|--9------------------9--7--|------------12---------------|-----------10--------------|-----------------------------|---------------------------|-----------------------------|---------------------------|
--0--------0--------0-----|-----0-----0--0----0----|-----0--------0--------0--|--------0---------------|--------------------------|-----------5/-7----7----|--------7--------0--------|--7---------------------|--------------------------|------------------------|--------------------------|------------------------|
------0---------0---------0--|-----0---------0-----------|---------0---------0---------|--------0---------0--------|--10------------------12-----|--9------------------9--7--|------------12---------------|-----------10--------------|-----------------------------|---------------------------|-----------------------------|---------------------------|
--0--------0--------0-----|-----0-----0~-0----0----|-----0--------0--------0--|--------0---------------|--------------------------|-----------5/-7----7----|--------7--------0--------|--7---------------------|--------------------------|------------------------|--------------------------|------------------------|
------0---------0---------0--|-----0---------0-----------|---------0---------0---------|--------0---------0--------|--10------------------10-----|--9------------------9--7--|------------12---------------|-----------10--------------|-----------------------------|---------------------------|-----------------------------|---------------------------|
--0--------0--------0-----|--0----0----0--------|--0--------0--------|-----0--------0--------0--|---------------------|--0--------0--------|--------------------------|---------------------|--0--------0--------|--------7--------0--------|--0----0----0--------|--5--------4--------|--------------------------|---------------------|--7--------5--------|--------------------------|--0----0----0--------|--0--------0--------|
--0----------------|--0----------------|--0--------0--------|--0----------------|--0----------------|--0--------0--------|--0----------------|--0----------------|--0--------0--------|--2----------------|--2----------------|--4--------5--------|--3----------------|--3----------------|--5--------7--------|--0----------------|--0----------------|--0--------0--------|
--0----------------|--0--------0--------|--0----------------|--0----------------|--0--------0--------|--0----------------|--7----------------|--0--------0--------|--0----------------|--7----------------|--4--------5--------|--2----------------|--5----------------|--5--------7--------|--3----------------|--0----------------|--0--------0--------|--0----------------|
--0--------0--------|--0----------------|--0--------0--------|--0--------0--------|--0----------------|--0--------0--------|--0--------0--------|--7----------------|--0--------0--------|--4--------5--------|--7----------------|--4--------5--------|--5--------7--------|--5----------------|--5--------7--------|--0--------0--------|--0----------------|--0--------0--------|
--0----------------|--0--------0--------|--0----------------|--0----------------|--0--------0--------|--0----------------|--0----------------|--0--------0--------|--7----------------|--2----------------|--4--------5--------|--7----------------|--3----------------|--5--------7--------|--5----------------|--0----------------|--0--------0--------|--0----------------|
--0--------0--------|--0----------------|--0--------0--------|--0--------0--------|--0----------------|--0--------0--------|--0--------0--------|--0----------------|--0--------0--------|--4--------5--------|--2----------------|--4--------5--------|--5--------7--------|--3----------------|--5--------7--------|--0--------0--------|--0----------------|--0--------0--------|
--0----------------|--0--------0--------|--0----------------|--0----------------|--0--------0--------|--0----------------|--7----------------|--0--------0--------|--0----------------|--7----------------|--4--------5--------|--2----------------|--5----------------|--5--------7--------|--3----------------|--0----------------|--0--------0--------|--0----------------|
--0----------------|--0----------------|-----------------------|--0----------------|--0----------------|-----------------------|--0----------------|--0----------------|--10/---7--7--7--------|--2----------------|--2----------------|-----------------------|--3----------------|--3----------------|--8/----5--5--5--------|--0----------------|--0----------------|--0-----0--0--0--------|
------------------------|---------------------|-------------------|------------------------|---------------------|-------------------|--5/---7--7--7----10/---|--7----7----7--------|--5----------------|------------------------|---------------------|-------------------|--3/---5--5--5----8/----|--5----5----5--------|--3----------------|--0----0--0--0----0-----|--0----0----0--------|-------------------|
-----------------------|------------------------|---------------------|-----------------------|------------------------|---------------------|--10/---7--7--7--------|--5/---7--7--7----10/---|--7----7----7--------|-----------------------|------------------------|---------------------|--8/----5--5--5--------|--3/---5--5--5----8/----|--5----5----5--------|--0-----0--0--0--------|--0----0--0--0----0-----|--0----0----0--------|
--------------------|-----------------------|------------------------|--------------------|-----------------------|------------------------|--12----------------|--10/---7--7--7--------|--5/---7--7--7----10/---|--------------------|-----------------------|------------------------|--10----------------|--8/----5--5--5--------|--3/---5--5--5----8/----|--0-----------------|--0-----0--0--0--------|--0----0--0--0----0-----|
---------------------|-------------------|-----------------------|---------------------|-------------------|-----------------------|--7----7----7--------|--5----------------|--10/---7--7--7--------|---------------------|-------------------|-----------------------|--5----5----5--------|--3----------------|--8/----5--5--5--------|--0----0----0--------|-------------------|--0-----0--0--0--------|
------------------------|---------------------|--------------------|------------------------|---------------------|--------------------|--5/---7--7--7----10/---|--7----7----7--------|--12----------------|------------------------|---------------------|--------------------|--3/---5--5--5----8/----|--5----5----5--------|--10----------------|--0----0--0--0----0-----|--0----0----0--------|--0-----------------|
--0--------0--------|--0----------------|--0--------0--------|--0--------0--------|--0----------------|--0--------0--------|--0--------0--------|--7----------------|--0--------0--------|--4--------5--------|--7----------------|--4--------5--------|--5--------7--------|--5----------------|--5--------7--------|--0--------0--------|--0----------------|--0--------0--------|
--0----------------|--0--------0--------|--0----------------|--0----------------|--0--------0--------|--0----------------|--0----------------|--0--------0--------|--7----------------|--2----------------|--4--------5--------|--7----------------|--3----------------|--5--------7--------|--5----------------|--0----------------|--0--------0--------|--0----------------|
--0--------0--------|--0----------------|--0--------0--------|--0--------0--------|--0----------------|--0--------0--------|--0--------0--------|--0----------------|--0--------0--------|--4--------5--------|--2----------------|--4--------5--------|--5--------7--------|--3----------------|--5--------7--------|--0--------0--------|--0----------------|--0--------0--------|
--0----------------|--0--------0--------|--0----------------|--0----------------|--0--------0--------|--0----------------|--7----------------|--0--------0--------|--0----------------|--7----------------|--4--------5--------|--2----------------|--5----------------|--5--------7--------|--3----------------|--0----------------|--0--------0--------|--0----------------|
--0--------0--------|--0----------------|--0--------0--------|--0--------0--------|--0----------------|--0--------0--------|--0--------0--------|--7----------------|--0--------0--------|--4--------5--------|--7----------------|--4--------5--------|--5--------7--------|--5----------------|--5--------7--------|--0--------0--------|--0----------------|--0--------0--------|
--0----------------|--0--------0--------|--0----------------|--0----------------|--0--------0--------|--0----------------|--0----------------|--0--------0--------|--7----------------|--2----------------|--4--------5--------|--7----------------|--3----------------|--5--------7--------|--5----------------|--0----------------|--0--------0--------|--0----------------|
--0--------0--------|--0----------------|--0--------0--------|--0--------0--------|--0----------------|--0--------0--------|--0--------0--------|--0----------------|--0--------0--------|--4--------5--------|--2----------------|--4--------5--------|--5--------7--------|--3----------------|--5--------7--------|--0--------0--------|--0----------------|--0--------0--------|
--0----------------|--0--------0--------|--0----------------|--0----------------|--0--------0--------|--0----------------|--7----------------|--0--------0--------|--0----------------|--7----------------|--4--------5--------|--2----------------|--5----------------|--5--------7--------|--3----------------|--0----------------|--0--------0--------|--0----------------|
--0--------0--------|--0----------------|--0--------0--------|--0--------0--------|--0----------------|--0--------0--------|--0--------0--------|--7----------------|--0--------0--------|--4--------5--------|--7----------------|--4--------5--------|--5--------7--------|--5----------------|--5--------7--------|--0--------0--------|--0----------------|--0--------0--------|
--0----------------|--0--------0--------|--0----------------|--0----------------|--0--------0--------|--0----------------|--0----------------|--0--------0--------|--7----------------|--2----------------|--4--------5--------|--7----------------|--3----------------|--5--------7--------|--5----------------|--0----------------|--0--------0--------|--0----------------|
--0--------0--------|--0----------------|--0--------0--------|--0--------0--------|--0----------------|--0--------0--------|--0--------0--------|--0----------------|--0--------0--------|--4--------5--------|--2----------------|--2--------2--------|--5--------7--------|--3----------------|--3--------3--------|--0--------0--------|--0----------------|--0--------0--------|
--0----------------|-----------------------|------------------------|--0----------------|-----------------------|------------------------|--0----------------|--10/---7--7--7--------|--5/---7--7--7----10/---|--2----------------|-----------------------|------------------------|--3----------------|--8/----5--5--5--------|--3/---5--5--5----8/----|--0----------------|--0-----0--0--0--------|--0----0--0--0----0-----|
---------------------|-------------------|-----------------------|---------------------|-------------------|-----------------------|--7----7----7--------|--5----------------|--10/---7--7--7--------|---------------------|-------------------|-----------------------|--5----5----5--------|--3----------------|--8/----5--5--5--------|--0----0----0--------|-------------------|--0-----0--0--0--------|
------------------------|---------------------|--------------------|------------------------|---------------------|--------------------|--5/---7--7--7----10/---|--7----7----7--------|--12----------------|------------------------|---------------------|--------------------|--3/---5--5--5----8/----|--5----5----5--------|--10----------------|--0----0--0--0----0-----|--0----0----0--------|--0-----------------|
-----------------------|------------------------|---------------------|-----------------------|------------------------|---------------------|--10/---7--7--7--------|--5/---7--7--7----10/---|--7----7----7--------|-----------------------|------------------------|---------------------|--8/----5--5--5--------|--3/---5--5--5----8/----|--5----5----5--------|--0-----0--0--0--------|--0----0--0--0----0-----|--0----0----0--------|
-------------------|-----------------------|------------------------|-------------------|-----------------------|------------------------|--5----------------|--10/---7--7--7--------|--5/---7--7--7----10/---|-------------------|-----------------------|------------------------|--3----------------|--8/----5--5--5--------|--3/---5--5--5----8/----|-------------------|--0-----0--0--0--------|--0----0--0--0----0-----|
---------------------|--------------------|--------------------|---------------------|--------------------|--------------------|--7----7----7--------|--12----------------|--14----------------|---------------------|--------------------|--------------------|--5----5----5--------|--10----------------|--12----------------|--0----0----0--------|--0-----------------|--0-----------------|
--------------------|--------------------|--------------------|--------------------|--------------------|--------------------|--14----------------|--12----------------|--12----------------|--------------------|--------------------|--------------------|--12----------------|--10----------------|--10----------------|--0-----------------|--0-----------------|--0-----------------|
--------------------|--------------------|-------------------|--------------------|--------------------|-------------------|--10----------------|--10----------------|--9----------------|--------------------|--------------------|-------------------|--8-----------------|--8-----------------|--7----------------|--0-----------------|--0-----------------|--0----------------|
-------------------|---------------------|--------------------|-------------------|---------------------|--------------------|--9----------------|--5----7----7--------|--9--------7--------|-------------------|---------------------|--------------------|--7----------------|--3----5----5--------|--7--------5--------|--0----------------|-------0----0--------|--0--------0--------|
---------------------|----------------------|---------------------|---------------------|----------------------|---------------------|--5----7----7--------|----------------------|-----------5----7----|---------------------|----------------------|---------------------|--3----5----5--------|----------------------|-----------3----5----|-------0----0--------|--0----3----0----3----|--0-------------0----|
--------------------|----------------------|---------------------|--------------------|----------------------|---------------------|--7--------7--------|----------------------|----------------5----|--------------------|----------------------|---------------------|--5--------5--------|----------------------|----------------3----|--0--------0--------|--3----0----3----0----|--3----0--------0----|
---------------------|----------------------|---------------------|---------------------|----------------------|---------------------|--5----7--------7----|----------------------|----------------5----|---------------------|----------------------|---------------------|--3----5--------5----|----------------------|----------------3----|--0----0--------0----|--3----0----3----0----|--3----0--------0----|
---------------------|----------------------|---------------------|---------------------|----------------------|---------------------|--5----7--------7----|----------------------|----------------5----|---------------------|----------------------|---------------------|--3----5--------5----|----------------------|----------------3----|--0----0--------0----|--3----0----3----0----|--3----0--------0----|
---------------------|----------------------|---------------------|---------------------|----------------------|---------------------|--5----7--------9----|--7----7--------------|----------------5----|---------------------|----------------------|---------------------|--3----5--------7----|--5----5--------------|----------------3----|--0----0--------0----|--0----0----3----0----|--3----0--------0----|
---------------------|----------------------|---------------------|---------------------|----------------------|---------------------|--5----7--------7----|----------------------|----------------5----|---------------------|----------------------|---------------------|--3----5--------5----|----------------------|----------------3----|--0----0--------0----|--3----0----3----0----|--3----0--------0----|
---------------------|----------------------|---------------------|---------------------|----------------------|---------------------|--5----7--------9----|--7----7--------------|----------------5----|---------------------|----------------------|---------------------|--3----5--------7----|--5----5--------------|----------------3----|--0----0--------0----|--0----0----3----0----|--3----0--------0----|
---------------------|----------------------|---------------------|---------------------|----------------------|---------------------|--5----7--------9----|--7----7---------5----|--7----7-------------|---------------------|----------------------|---------------------|--3----5--------7----|--5----5---------3----|--5----5-------------|--0----0--------0----|--0----0----0----0----|--0----0----0--------|
---------------------|----------------------|---------------------|---------------------|----------------------|---------------------|--5----7--------9----|--7----7---------5----|--7----7-------------|---------------------|----------------------|---------------------|--3----5--------7----|--5----5---------3----|--5----5-------------|--0----0--------0----|--0----0----0----0----|--0----0----0--------|
---------------------|----------------------|---------------------|---------------------|----------------------|---------------------|--5----7--------9----|--7----7---------5----|--7----7-------------|---------------------|----------------------|---------------------|--3----5--------7----|--5----5---------3----|--5----5-------------|--0----0--------0----|--0----0----0----0----|--0----0----0--------|
-------------------|-----------0--------|-----------0--------|--0----------------|-----------0--------|-----------0--------|--6----------------|-----------2--------|-----------0--------|-------------------|-----------0--------|-----------0--------|--5----------------|--3-----------------|--2-----------------|--0----------------|-----------0--------|--------------------|
----------------------|--------------------|----------------------|----------------------|--------------------|----------------------|----------------------|--10----------------|--5----7----7----7----|----------------------|--------------------|----------------------|-------3----5----5----|--8-----------------|--3----5----5----5----|--3----0----0----0----|--0-----------------|--0----0----0----0----|
----------------------|--------------------|----------------------|----------------------|--------------------|----------------------|----------------------|--10----------------|--5----7----7----7----|----------------------|--------------------|----------------------|-------3----5----5----|--8-----------------|--3----5----5----5----|--3----0----0----0----|--0-----------------|--0----0----0----0----|
----------------------|-------------------|-----------0--------|----------------------|--0----------------|-----------0--------|-------5----7----7----|--6----------------|-----------2--------|----------------------|-------------------|-----------0--------|-------3----5----5----|--5----------------|--3-----------------|--3----0----0----0----|--0----------------|-----------0--------|
-----------0--------|----------------------|--------------------|-----------0--------|----------------------|--------------------|-----------0--------|----------------------|--10----------------|-----------0--------|----------------------|--------------------|--2-----------------|-------3----5----5----|--8-----------------|--------------------|--3----0----0----0----|--0-----------------|
----------------------|----------------------|--------------------|----------------------|----------------------|--------------------|--5----7----7----7----|----------------------|--10----------------|----------------------|----------------------|--------------------|--3----5----5----5----|-------3----5----5----|--8-----------------|--0----0----0----0----|--3----0----0----0----|--0-----------------|
----------------------|----------------------|-------------------|----------------------|----------------------|-------------------|--5----7----7----7----|-------5----7----7----|--5----------------|----------------------|----------------------|-------------------|--3----5----5----5----|-------3----5----5----|--3----------------|--0----0----0----0----|--3----0----0----0----|--0----------------|
------------------||------------------||------------------||------------------||------------------||------------------||
I have been getting e-mail for over a year now on my song Opspeculate. "I have been Fuck'in Honored to be thought good enough to sound like Creed" I wrote it in /95. Recorded it in my basement studio in /96. It premiered in 97/98 on rollingstone.com and was downloaded 1000's of times. Seems when Napster came around it somehow propagated into a Creed song. So that's it... just me and my guitars. Let me know if you like it!!! Creed Fans ROCK!!!!!!!!!!!!!!!!!!!!!!! Thanks Again Jason Empey aka The RockSTAR (Nicknamed by peers for my ever pressing determination to be a RockSTAR) {www.sourcepromo.com/rockstar} Jason Empey [e-mail jason@sourcepromo.com]
Tap to rate this tab
 
# A B C D E F G H I J K L M N O P Q R S T U V W X Y Z