Crowbar - The Violent Reaction tab

Band:  CROWBAR
Album: Life's Blood For The Downtrodden
Song:  The Violent Reaction

Transcribed by: general maxx

Tuning: 3.5 steps down (A)

Keys:
  b  - bend
  r  - release bend
 ___ - palm mute
 / \ - slide
  h  - hammer on


INTRO:

|----------------------------------------||----------------------------------------||----------------------------------------||----------6-3---------------------------||----------4---4-3-1~--0------1~--0------||-9~--8~------------------1-2--------3---| 4x
RIFF Aa:
|---------------------------------------------------||---------------------------------------------------||---------------------------------------------------||---------------------------------------------------||-----2---3---3---/10--9\7-----2---3---3-/9-0-10----||-3br-0-0-1-0-1-0--/8--7\5-3br-0-0-1-0-1---------6\-| 4x _ _ _ _ _
RIFF B:
|--------------------------------------------------------------||--------------------------------------------------------------||-9---7-7--5-5--8-8---11-11----9---7-7--5-5--8-8---11-11--11\--||-7---5-5--3-3--6-6----9--9----7---5-5--3-3--6-6----9--9--11\--||-7---5-5--3-3--4-4----7--7----7---5-5--3-3--4-4----7--7---9\--||----------------------------------------------------------9\--|
RIFF Ab:
|---------------------------------------------------||---------------------------------------------------||---------------------------------------------------||---------------------------------------------------||-----2---3---3---/10--9\7-----2---3---3-/9-0-10----||-3br-0-0-1-0-1-0--/8--7\5-3br-0-0-1-0-1---------6\-| _ _ _ _ _
--------------------------------------------------------| --------------------------------------------------------| --------------------------------------------------------| --------------------------------------------------------| -----2---3---3---/10--9\7-----2---3---3--/9--0--10------| -3br-0-0-1-0-1-0--/8--7\5-3br-0-0-1-0-1-------------6\--| _ _ _ _ _
RIFF C:
|-----------------------------------------------------------||-----------------------------------------------------------||---7-7---5-----------------------7-7---5-------------------||---5-5-4-5-----------------------5-5-4-5-------------------||-2-3-3-2-3-2-------------------2-3-3-2-3-2-----------------||-0---------0--1-2-1-2-/6~-5~-3-0---------0--1-2-1-0h1-/9~--|
------------------------------------------------------| ------------------------------------------------------| ---7-7---5-----------------------7-7---5--------------| ---5-5-4-5-----------------------5-5-4-5--------------| -2-3-3-2-3-2-------------------2-3-3-2-3-2------------| -0---------0--1-2-1-2-/6~-5~-3-0---------0--1-2-1-0h1-|
INTRO - 4x RIFF Aa - 1x RIFF B - 2x RIFF Ab RIFF C INTRO - 5x INTRO/OUTRO: (slower)
|--------------------------------------------||--------------------------------------------||--------------------------------------------||----------6-3-------------------------------||----------4---4-3-1~--0------1~--0----------||-9~--8~------------------1-2----------------|
Tap to rate this tab
 
# A B C D E F G H I J K L M N O P Q R S T U V W X Y Z