Crowbar – It Pours From Me tab

Band:  CROWBAR
Album: Sonic Excess in its Purest Form
Song:  It Pours From Me

Transcribed by:	general maxx
Tuning:	2.5 steps down (B)

Keys:
 / \ - slide
 ___ - palm mute
  h  - hammer on
  b  - bend
  r  - release bend
  p  - pull off


INTRO:(Gtr 1)|-------------------------------------------------||-------------------------------------------------||-------------------------------------------------||-5~----------------------------------------------||-------6~----5~----4~----------------------------||-------------------------5~----4~----3~----2~----|
(Gtr 2)|-------------------------------------------------||-------------------------------------------------||-------------------------------------------------||-8~----5~----4~----3~----------------------------||-------------------------4~----3~----2~----0-----||-------------------------------------------------| 2x
RIFF A:
|------------------------------||------------------------------||------------------------------||-6-5-6-5-2-5-6-7-6-5-2-5-7-8\-||-6-5-6-5-2-5-6-7-6-5-2-5-5-6\-||-4-3-4-3-0-3-4-5-4-3-0-3-5-6\-| 4x
RIFF B:
|---------------------------------------------------------||---------------------------------------------------------||---------------------------------------------------------||-2--2-2------2/3-----3/8-----8\7--7-7----6-5-6-5-2-5-7-8-||-2--2-2--2-2-2/3-3-3-3/8-8-8-8\7--7-7----6-5-6-5-2-5-5-6-||-0--0-0--0-0-0h1-1-1-1/6-6-6-6\5--5-5--5-4-3-4-3-0-3-5-6-| ___ ___ ___
-------------------------------------------------------| -------------------------------------------------------| -------------------------------------------------------| -2--2-2------2/3-----3/8-----8\7--7-7------------------| -2--2-2--2-2-2/3-3-3-3/8-8-8-8\7--7-7------------------| -0--0-0--0-0-0h1-1-1-1/6-6-6-6\5--5-5--5-5br-4~-3br-2~-| ___ ___ ___
---------------------------------------------------------| ---------------------------------------------------------| ---------------------------------------------------------| -2--2-2------2/3-----3/8-----8\7--7-7----6-5-6-5-2-5-7-8-| -2--2-2--2-2-2/3-3-3-3/8-8-8-8\7--7-7----6-5-6-5-2-5-5-6-| -0--0-0--0-0-0h1-1-1-1/6-6-6-6\5--5-5--5-4-3-4-3-0-3-5-6-| ___ ___ ___
-------------------------------------------------------------| -------------------------------------------------------------| -------------------------------------------------------------| -2--2-2------2/3-----3/8-----8\7--7-7------------------------| -2--2-2--2-2-2/3-3-3-3/8-8-8-8\7--7-7------------------------| -0--0-0--0-0-0h1-1-1-1/6-6-6-6\5--5-5--5-5br--4~---3br--2~---| ___ ___ ___
RIFF C:
|------------------------------------||------------------------------------||-0----------------------------------||-0------0----2--2----8--7-----------||-2------0----2--2----6--5-----------||-3------2----0--0----6--5--6--5~----|
----------------------------------------| ----------------------------------------| --------2-------------------------------| -0------2----5--5----6br-6br-5--2--2--2-| -2------0----5--5----4---4---3--2--2--2-| -3-----------3--3----4---4---3--0--0--0-| 2x _______
RIFF A - 4x RIFF B RIFF C - 2x INTRO RIFF D:
|---------------------------||---------------------------||----------------------10b\-||-----------------------x---||-4h5p4---------------0-8b\-||-------5-3~--0-3h5h6-------| 14x
OUTRO: (fades out)
|-----------------||-----------------||-3-0-------------||-3-2---------3---||-1-0-------3-----||-----2b-1--------|
Please rate this tab:
x1.0