Crowbar - Suffering Brings Wisdom tab

Band:  CROWBAR
Album: Sonic Excess in its Purest Form
Song:  Suffering Brings Wisdom

Transcribed by:	general maxx

Tuning:	2.5 steps down (B)

Keys:
  b  - bend
  r  - release bend
 / \ - slide
 ___ - palm mute
 x\\ - pick scrape


RIFF A:

|---------------------------------------------------------------||---------------------------------------------------------------||---------------------------------------------------------------||-2--2--2--------------4---4--2---2------2-5---5/7-4---4--2---2-||-2--2--2--------------2---2--0---0----2---3---3/5-2---2--0---0-||-0--0--0--3br-3br-3br---2------2----0-----3---3/5---2------2---| 4x
|----------------------||----------------------||----------------------||-2--2--2--------------||-2--2--2--------------||-0--0--0--3br-3br-3br-|
RIFF B:(Gtr 1)|---------------------------------------||---------------------------------------||---------------------------------------||-2--3--7--6---------------8--5------5--||-2--3--5--4---------------6--5--5-5-3--||-0--1--5--4--3--4--4br-3~-6--3--5-5-3--| ___
(Gtr 2)|---------------------------------------||---------------------------------------||---------------------------------------||-2--3--7--6--5--6--6br-5--8--5------5--||-2--3--5--4--3--x--x---x--6--5--5-5-3--||-0--1--5--4--3--4--4br-3--6--3--5-5-3--| 4x ___
RIFF A:
|----------------------------------------------------------------||----------------------------------------------------------------||----------------------------------------------------------------||-4---4--2---2------2-5---5/7-4---4--2---2--2--2--2--------------||-2---2--0---0----2---3---3/5-2---2--0---0--2--2--2--------------||---2------2----0-----3---3/5---2------2----0--0--0--3br-3br-3br-| 2x
RIFF B - 4x RIFF C:
|---------------------------------------------------------||---------------------------------------------------------||---------------------------------------------------------||--------------10--9-8-8--8-7-----------------------------||---------------8--9-8-6--8-7-----------------------------||-0-0-0-0--0-0--8--7-6-6--6-5-0-0-0-0--0-4-3~-0-4-3~-0-3~-| ____________ __________
|-----------------------------||-----------------------------||-----------------------------||--------------10--9-8-8--8-7-||---------------8--9-8-6--8-7-||-0-0-0-0--0-0--8--7-6-6--6-5-| 12x ____________
RIFF D:
|---------------------------------------------------------------------||---------------------------------------------------------------------||-----------------------------x\\-------------------------------------||-2--3--2--5--4--2--0---------x\\---2--3--2--5--4--2--0--------/9b--r-||-2--3--2--5--4--2--4--3--2---------2--3--2--5--4--2--4--3--2---------||-0--1--0--3--2--0--5--4--3~--------0--1--0--3--2--0--5--4--3~--------| _______ _______
---------------------------------------------------------------------| ---------------------------------------------------------------------| -----------------------------x\\-------------------------------------| -2--3--2--5--4--2--0---------x\\---2--3--2--5--4--2--0--------/9b--r-| -2--3--2--5--4--2--4--3--2---------2--3--2--5--4--2--4--3--2--x\\----| -0--1--0--3--2--0--5--4--3~--------0--1--0--3--2--0--5--4--3~--------| _______ _______
FILL:
|-----------------||-----------------||-----------------||-----------------||-2~~~~~~---------||-----------------|
RIFF A:
|---------------------------------------------------------------||---------------------------------------------------------------||---------------------------------------------------------------||-2--2--2--------------4---4--2---2------2-5---5/7-4---4--2---2-||-2--2--2--------------2---2--0---0----2---3---3/5-2---2--0---0-||-0--0--0--3br-3br-3br---2------2----0-----3---3/5---2------2---| 2x
|----------------------||----------------------||----------------------||-2--2--2--------------||-2--2--2--------------||-0--0--0--3br-3br-3br-|
RIFF D:
|---------------------------------------------------------------------||---------------------------------------------------------------------||-----------------------------x\\-------------------------------------||-2--3--2--5--4--2--0---------x\\---2--3--2--5--4--2--0--------/9b--r-||-2--3--2--5--4--2--4--3--2---------2--3--2--5--4--2--4--3--2---------||-0--1--0--3--2--0--5--4--3~--------0--1--0--3--2--0--5--4--3~--------| _______ _______
--------------------------------------------------------------| --------------------------------------------------------------| -----------------------------x\\------------------------------| -2--3--2--5--4--2--0---------x\\---2--3--2--5--4--2--0--------| -2--3--2--5--4--2--4--3--2---------2--3--2--5--4--2--4--3--2--| -0--1--0--3--2--0--5--4--3~--------0--1--0--3--2--0--5--4--3~-| _______ _______
Tap to rate this tab
 
# A B C D E F G H I J K L M N O P Q R S T U V W X Y Z