Crowbar – Failure To Delay Gratification tab

Band:	CROWBAR
Album:	Sonic Excess in its Purest Form
Song:	Failure to Delay Gratifacation

Transcribed by:	general maxx
Tuning:	2.5 steps down

Keys:
 /or\ - slide
   p  - pull off
  ___ - palm mute


|---------------------------||---------------------------||---------------------------||-/10-9-9-9-9-8-8-8-5-5-5-5-||-/-8-9-9-9-9-8-8-8-5-5-5-5-||-/-8-7-7-7-7-6-6-6-3-3-3-3-| 8x
|-------------------||-------------------||-------------------||---------------8\7-||-4--2----------6\5-||-2--0--0-2p0-2-6\5-| 4x
|---------------------------||---------------------------||---------------------------||-/10-9-9-9-9-8-8-8-5-5-5-5-||-/-8-9-9-9-9-8-8-8-5-5-5-5-||-/-8-7-7-7-7-6-6-6-3-3-3-3-| 4x
|-------------------||-------------------||-------------------||---------------8\7-||-4--2----------6\5-||-2--0--0-2p0-2-6\5-| 4x
|--------------------------||--------------------------||--------------------------||-5--8--2--5--9--8---------||-5--6--2--3--9--8---------||-3--6--0--3--7--6--2-1-2~-| 4x
|----------------------------||----------------------------||----------------------------||---------9--8---8-----------||-3-2-3-2-9--8---6--2-3-2-3--||-1-0-1-0-7--6---6--0-1-0-1--| 8x _______
|-------------------||-------------------||-------------------||---------------8\7-||-4--2----------6\5-||-2--0--0-2p0-2-6\5-| 8x
|---------------------------------------||---------------------------------------||---------------------------------------||-------------------4--3----------------||-------------------4--3----------------||-0-0-0-0... 32x----2--1----------------| _______
|---------------------------------||---------------------------------||---------------------------------||-/10-9--9--9--9--9-8-8-8-5-5-5-5-||-/-8-9--9--9--9--9-8-8-8-5-5-5-5-||-/-8-7--7--7--7--7-6-6-6-3-3-3-3-| 4x
|--------------------------------||--------------------------------||--------------------------------||-/9-8--8--8--8--8-7-7-7-4-4-4-4-||-/7-8--8--8--8--8-7-7-7-4-4-4-4-||-/7-6--6--6--6--6-5-5-5-2-2-2-2-| 3x
|------------------------------------||------------------------------------||------------------------------------||-/9-8--8--8--8--8-7-7-7-4--4--4--3--||-/7-8--8--8--8--8-7-7-7-4--4--4--3--||-/7-6--6--6--6--6-5-5-5-2--2--2--1--|
Please rate this tab:
x1.0