Crowbar - New Man Born tab

Band:  CROWBAR
Album: Odd Fellows Rest
Song:  New Man Born

Transcribed by:	general maxx


Tuning:	strings 1-5 - 2.5 steps down
	string    6 - 3.5 steps down

Keys:
 / \ - slide
 ___ - palm mute


INTRO:

|--------------------------||--------------------------||--------------------------||--------6--6------6-------||--------4--4------4-------||-/\-0-3-------0-3----0-8\-|
VERSE:
|--------------------------||--------------------------||--------------------------||--------6--6------6-------||-0--0-3-4--4------4-------||-0--0-3-------0-3----0-8\-| 12x
PRE-CHORUS:
|-------------------------------||-------------------------------||-------------------------------||------10--------5-------10---8-||-0---8--------3----------------||-0--8-------3--------/8----6---|
CHORUS:
|------------------------------||------------------------------||------------------------------||---7--7----7------5----10---8-||---5--5----5----3-------------||-0-------0----3-----/8----6---| 3x _ _
|-----------------------------------------||-----------------------------------------||-----------------------------------------||---7--7----7------5----10---8------------||---5--5----5----3------------------------||-0-------0----3-----/8----6--------------| _ _
INTRO VERSE - 8x PRE-CHORUS CHORUS INTERLUDE:
|---------------------------------------------------------------||---------------------------------------------------------------||---------------------------------------------------------------||---------------------------------------------------------------||----3/5~-------------------------------------------------------||-/\----------------------------------------------------------\-|
|------------------------------||------------------------------||------------------------------||------------------------------||-3/5--5--5--------1-1/3-3/6-6-||------------3-5-3-------------| 4x
|------------------------------||------------------------------||------------------------------||-5/7--7--7--------3-3/5-5/8-8-||-3/5--5--5--------1-1/3-3/6-6-||------------3-5-3-------------| 4x
|------------------------------------------------------------||------------------------------------------------------------||------------------------------------------------------------||------------------------------------------------------------||-3/5~-------------------------------------------------------||----------------------------------------------------------\-|
|------------------------------||------------------------------||------------------------------||------------------------------||-3/5--5--5--------1-1/3-3/6-6-||------------3-5-3-------------| 4x
|------------------------------||------------------------------||------------------------------||-5/7--7--7--------3-3/5-5/8-8-||-3/5--5--5--------1-1/3-3/6-6-||------------3-5-3-------------| 4x
CHORUS:
|------------------------------||------------------------------||------------------------------||---7--7----7------5----10---8-||---5--5----5----3-------------||-0-------0----3-----/8----6---| 4x _ _
OUTRO: (fades out)
|---------------------------------||---------------------------------||---------------------------------||-----6--6\------6\---------10-10-||-0-3-4--4\--0-3-4\----------x--x-||-0-3--------0-3-----0-0-0-0-8--8-| _______
Tap to rate this tab
 
# A B C D E F G H I J K L M N O P Q R S T U V W X Y Z