Cruachan - Exiles tab

 ^ - hammer on, pull off                   
 b - bend string up                        
 r - release bend 			   
 / - slide up     			   
 \ - slide down                            
 ~ - vibrato 
 T - tap            
 x - struck string                         
 . - play the note and then mute it    
 < - raising volume   
PM - palm mute                            
AH - Artificial Harmonic  
NH - Natural Harmonic
\  / - Tremolo Bar
 \/


Down-D tunning (DADGBe)

INTRO:-Distor guitar1:e|--------------------------------------------------|B|--------------------------------------------------|G|--------------------------------------------------|FIG1D|--9----7-7-7--9----7-7-7--7----5-5-5--7----5-5-5--|X2A|--7----7-7-7--7----7-7-7--5----5-5-5--5----5-5-5--|D|--------------------------------------------------|
VERSE1:-FIG1 X4 with the following (mandolin):|--0--0-2^0-0-7--0-3---------------5----2--||-----------------------3--3-5^3-3----3----||------------------------------------------|FIG2|------------------------------------------|X4|------------------------------------------||------------------------------------------|
CHORUS:GUITAR1:|------------------------------------------||------------------------------------------||------------------------------------------||--9--9-9--9-9--9-9--9-7--7-7--7-7--7-7--7-||--9--9-9--9-9--9-9--9-7--7-7--7-7--7-7--7-|-||--9--9-9--9-9--9-9--9-7--7-7--7-7--7-7--7-| |
| |FIG3|------------------------------------------| |X1|------------------------------------------|-||------------------------------------------||--9--9-9--9-9--9-9--9-7--7-7--7-2---------||--9--9-9--9-9--9-9--9-7--7-7--7-2---------||--9--9-9--9-9--9-9--9-7--7-7--7-2---------|
with MANDOLIN:|--7---5-7---8-7---5------------7----------------||--------------------8------10---10-8-7-----7-8--||---------------------------------------9--------|FIG4|------------------------------------------------|X2|------------------------------------------------||------------------------------------------------|
VERSE2: -FIG1 X4 with FIG2 X4
CHORUS:-FIG4 X2 wityh the following:|------------------------------------------||------------------------------------------||------------------------------------------||--9--9-9--9-9--9-9--9-7--7-7--7-7--7-7--7-||--9--9-9--9-9--9-9--9-7--7-7--7-7--7-7--7-|-||--9--9-9--9-9--9-9--9-7--7-7--7-7--7-7--7-| |
| |FIG5|------------------------------------------| |X1|------------------------------------------|-||------------------------------------------||--9--9-9--9-9--9-9--9-7--7-7--7-5----4----||--9--9-9--9-9--9-9--9-7--7-7--7-5----4----||--9--9-9--9-9--9-9--9-7--7-7--7-5----4----|
BRIDGE:|-----------------------------------------------||-----------------------------------------------||-----------------------------------------------||---------4-------------4------2-----2----5--4--||--2------2------2------2------0--5--0----3--2--|-||--2-------------2----------------5-------------|
|FIG6 |X2|-----------------------------------------------| ||-----------------------------------------------|-||-----------------------------------------------||---------4-------------4-----------------------||--2------2------2------2------5--4--5----7--5--||--2-------------2-------------5--4--5----7--5--|
|-----------------------------------------------||-----------------------------------------------||-----------------------------------------------||---------4-------------4------2-----2----5--4--||--2--2---2------2--2---2------0--5--0----3--2--|-||--2--2----------2--2-------------5-------------|
|FIG7 PM.. .... |X2|-----------------------------------------------| ||-----------------------------------------------|-||-----------------------------------------------||---------4-------------4-----------------------||--2--2---2------2--2---2------5--4--5----7--5--||--2--2----------2--2----------5--4--5----7--5--| PM.. ....
Then...-Mandolin:|-0--0--7--7--0--0--7--7--5--3--5--5--8--8--7--7--||-------------------------------------------------||-------------------------------------------------||-------------------------------------------------||-------------------------------------------------|-||-------------------------------------------------| |
|X6|-0--0--7--7--0--0--7--7--3--2--3--3--5--5--3--3--| ||-------------------------------------------------|-||-------------------------------------------------||-------------------------------------------------||-------------------------------------------------||-------------------------------------------------|
|--0---0-2-3---0---0-2-3---2---2------------------||--------------------------------5-3---5---5-5-3--||-------------------------------------------------||-------------------------------------------------||-------------------------------------------------|-||-------------------------------------------------| |
|
|--0---0-2-3---0---0-2-3---5---5-3-2---3---3-3-2--| ||-------------------------------------------------| ||-------------------------------------------------|-||-------------------------------------------------| ||-------------------------------------------------| ||-------------------------------------------------| |
|X4|--0---0-2-3---0---0-2-3---2---2------------------| ||--------------------------------5-3---5---5-5-3--| ||-------------------------------------------------|-||-------------------------------------------------| ||-------------------------------------------------| ||-------------------------------------------------| |
|
|--5---5-3-2-----------2---3---3-3-2--------------| ||--------------3---3-5-----------------5---5-5-3--|-||-------------------------------------------------||-------------------------------------------------||-------------------------------------------------||-------------------------------------------------|
Then...-Distor guitar:|-------------------------------------------------||-------------------------------------------------||-------------------------------------------------||-------------------------------------------------||--2---2-2-2---2---2-2-2---5---5-5-5---2---2-2-0--|-||--2---2-2-2---2---2-2-2---0---0-0-0---2---2-2-0--| |
PM........................................... ||-------------------------------------------------| ||-------------------------------------------------| ||-------------------------------------------------|-||-------------------------------------------------| ||--2---2-2-2---2---2-2-2---7---7-7-7---0---0---0--| ||--2---2-2-2---2---2-2-2---7---7-7-7---0---0---0--| |
PM........................................... |X2|-------------------------------------------------| ||-------------------------------------------------| ||-------------------------------------------------|-||-------------------------------------------------| ||--2---2-2-2---2---2-2-2---5---5-5-5---2---2-2-0--| ||--2---2-2-2---2---2-2-2---0---0-0-0---2---2-2-0--| |
PM........................................... ||-------------------------------------------------| ||-------------------------------------------------|-||-------------------------------------------------||-------------------------------------------------||--7---7-7-7---0---0-0-0---2---2-2-0---2---2---2--||--7---7-7-7---0---0-0-0---2---2-2-0---2---2---2--| PM...........................................
|-------------------------------------------------||-------------------------------------------------||-------------------------------------------------||-------------------------------------------------||--2---2-2-2---2---2-2-2---0---0-0-0---2---2-2-0--|-||--2---2-2-2---2---2-2-2---0---0-0-0---2---2-2-0--| |
PM. ... ... ... ||-------------------------------------------------| ||-------------------------------------------------| ||-------------------------------------------------|-||-------------------------------------------------| ||--2---2-2-2---2---2-2-2---7---7-7-7---0---0-0-0--| ||--2---2-2-2---2---2-2-2---7---7-7-7---0---0-0-0--| |
PM. ... ... ... |X2|-------------------------------------------------| ||-------------------------------------------------| ||-------------------------------------------------|-||-------------------------------------------------| ||--2---2-2-2---2---2-2-2---0---0-0-0---2---2-2-0--| ||--2---2-2-2---2---2-2-2---0---0-0-0---2---2-2-0--| |
PM. ... ... ... ||-------------------------------------------------| ||-------------------------------------------------|-||-------------------------------------------------||-------------------------------------------------||--7---7-7-7---0---0-0-0---2---2-2-2---2---2---2--||--7---7-7-7---0---0-0-0---2---2-2-2---2---2---2--| PM. ... ... .........
-FIG1 X2 VERSE3: -FIG1 X4 with FIG2 X4 CHORUS: -FIG3 X1 with FIG4 X2 VERSE4: -FIG1 X4 with FIG2 X4 CHORUS: -FIG5 X1 with FIG4 X2 BRIDGE: -FIG6 X2 -FIG7 X2
END:|--------------------------------------------||--------------------------------------------||--------------------------------------------||--------------------------------------------||--5----5-5-5-5----0----5----5-5-5-5----0----|-||--5----5-5-5-5----0----5----5-5-5-5----0----| |
PM... ..... |X4|--------------------------------------------| ||--------------------------------------------|-||--------------------------------------------||-----------------------5----4----2----------||--5----5-5-5-5----0----3----2----0----0-----||--5----5-5-5-5----0-------------------0-----| PM...
|------------------------------------------||------------------------------------------||------------------------------------------||------------------------------------------||--2----2-2-2-2----2----0----0-0-0-0----0--||--2----2-2-2-2----2----0----0-0-0-0----0--|
PM... .....|------------------------------------------||------------------------------------------||------------------------------------------||--5----5-5-5-5----5----7----7-7-7-7----7--||--3----3-3-3-3----3----5----5-5-5-5----5--||------------------------------------------| PM... .....
|--------------------------------------------||--------------------------------------------||--------------------------------------------||--------------------------------------------||--5----5-5-5-5----0----5----5-5-5-5----0----|-||--5----5-5-5-5----0----5----5-5-5-5----0----| |
PM... ..... |X2|--------------------------------------------| ||--------------------------------------------|-||--------------------------------------------||-----------------------5----4----2----------||--5----5-5-5-5----0----3----2----0----0-----||--5----5-5-5-5----0-------------------0-----|
PM...|------------------------------------------||------------------------------------------||------------------------------------------||------------------------------------------||--2----2-2-2-2----2----0----0-0-0-0----0--||--2----2-2-2-2----2----0----0-0-0-0----0--|
PM... .....|------------------------------------------||------------------------------------------||------------------------------------------||--5----5-5-5-5----5----7----7-7-7-7----7--||--3----3-3-3-3----3----5----5-5-5-5----5--||------------------------------------------| PM... .....
|----------------------------||----------------------------||----------------------------||--5------------5\-----------||--5------------5\-----------||--5------------5\-----------|
Tap to rate this tab
 
# A B C D E F G H I J K L M N O P Q R S T U V W X Y Z