Cryptopsy – Luminum tab ver. 2

Tuning E-standard: E-A-D-G-B-E


According to Alex Auburn, this song is played tuned to E...
so here is the E version.

Electric parts are at the end.


0:04 *downstroke slow||-----------------------------------------|||-13-----12------10\----------------------|||-9---------9----9\\---------10-----------|||-7-----------7-----------12-----------12-|||-----------------------8---------8h10----|||-----------------------------------------|
0:13|--------------------------||--------------------------||-------10-------9---------||----------10------9-------||-----8-------8------7-----||-0-8------------------7-0-|
0:20|------------------------------------------||------13----12-----10\--------------------||----9----------9---9\\----10--------------||-7---------------7--------12--------12----||--------------------------8----8h10----10-||------------------------------------------|
0:29 *downstroke slow|-------------------------||-------------------------||----------10----------9--||-------10----10-------9--||-----8----------8-----7--||-0-8------------------7--|
0:34 *downstroke slow|-----------------------------------------||-13--------12------10\-------------------||----9-9-------9----9\\---10--------------||------7---------7--------12--------12----||-------------------------8----8h10----10-||-----------------------------------------| u u d
0:41|------------------||------------------||-------10-------9-||----------10----9-||-----8-------8--7-||-0-8------------7-|
0:46|---------------------------------------------||-13-----12-----10\---------------------------||-9---------9---9\\----------10---------------||-7-----------7--------------12---------12----||-0--------------------------8-----8h10----10-||---------------------------------------------|
0:53|--------------------||--------------------||-10-10--10-10-----9-||-10-10--10-10-----9-||--8--8---8--8-----7-||--8--8---8--8-----7-| d u d u d
0:58|-----------------------------------------|--13-13---------12-12---------10-10------|--9—-9--5times--9--9--2times--9-—9--once-|--7--7----------7--7----------7--7-------|--7--7----------7--7----------7--7-------|-----------------------------------------
d u d u d u(continued)-------------------------------------------------------|-------------------------------------------------------|-10-10--------10---10-10-10----10-10--------9-9--------|-10-10-2times-10---10-10-10----10-10-2times-9-9-2times-|--8--8--------8h10-10-10-10p8--8--8---------7-7--------|--8--8--------8----8--8--8-----8--8---------7-7--------| d u d u d u d u d u
1:07|-----------------------------------------|--13-13---------12-12---------10-10------|--9—-9--5times--9--9--2times--9-—9--once-|--7--7----------7--7----------7--7-------|--7--7----------7--7----------7--7-------|----------------------------------------- d u d u d u
(continued)----------------------------------------------|----------------------------------------------|-10-10--------10---10-10-10----10-10--------9-|-10-10-2times-10---10-10-10----10-10-2times-9-|--8--8--------8h10-10-10-10p8--8--8---------7-|--8--8--------8----8--8--8-----8--8---------7-| d u d u d u d u d
1:17|--------------------------------------||-13-----12------10\-------------------||-9---------9----9\\----10-------------||-7-----------7---------12-------12----||-----------------------8---8h10----10-||--------------------------------------|
1:24|----------------------------||----------------------------||-10-10--10-10-----9---------||-10-10--10-10-----9--(9)----||--8--8---8--8-----7-----(0)-||--8--8---8--8-----7---------| d u d u d
1:26|------------------------------------------------|||-13-----12------10\-----------------------------|||-9---------9----9\\---------10---------------10-|||-7-----------7-----------12-----------12-----10-|||-----------------------8---------8h10----10--8--|||---------------------------------------------8--||
dElectric parts: 1:17||---------------------------|||---------------------------|||---------------------------|||---------------------------|||-12----12-15-14ph-bh~~r~~~-|||----12---------------------| . . . .
1:26|---------------------------------------------------------|||---------------------------------------------------------|||---------------------------------------------------------|||----------------14----12-15ph-bf~~r~~~-|||-12----12-15-14----14------------------------------------|||----12---------------------------------------------------|| . . . . . . . .
END Tab Legend . - palm mute \ - slide down to / - slide up to h - hammer on t - tap ph - pinched harmonic ^ - Hold bend r release bend ~ - vibrato bend () - ghost note, sustained note " - tremolo note b - Bend f - full bend h - half bend q - quarter bend ^ - Hold bend r - release bend
Please rate this tab:
x1.0