Cryptopsy - Open Face Surgery tab

OPEN FACE SURGERY  Cryptopsy  Blasphemy Made Flesh
Copyright (c) Displeased Records, 1994

Tuning (Low - High): B E D A

Intro Sample (w/Drill)

A1|-------------------------|-------------3-2---2-1---||-------------------------|-----------3-----3-----2-||-3-2---2-----6-6-6-5-5-5-|-3-2---2-----------------||-1-0---0---0-4-4-4-3-3-3-|-1-0---0-----------------|
| pm............ pm || backing guitar ||-------------------------|-------------3-2---2-1---||-------------------------|-----------3-----3-----2-||-3-2---------------------|-3-2---2-----------------||-1-0---------------------|-1-0---0-----------------| pm
Repeat A1 x 6 (both guitars)
A2|--------------------------|-------------3-2---2-1---||--------------------------|-----------3-----3-----2-||-3-2---2------------------|-3-2---2-----------------||-1-0---0---0-444444333333-|-1-0---0-----------------| pm............ pm
Repeat A2
B|---------------------------------|---------------------------------||-------------7---6---------------|-------------7---6---------------||-2---3---5---5---4---7---6---3---|-2---3---5---5---4---7---6---3---||-0---1---3-----------5---4---1---|-0---1---3-----------5---4---1---|
| || backing guitar ||---------------------------------|---------------------------------||---------------------------------|---------------------------------||-2-------------------------------|-2---3---------------------------||-0-------------------------------|-0---1-------------------/-x-\---| pm pm......
B (1, 2, 3) (4)|---------------------------------|---------------------------------||-------------7---6---------------|-------------7---6-------3-------||-2---3---5---5---4---7---6---3---|-2---3---5---5---4-------3-------||-0---1---3-----------5---4---1---|-0---1---3-----------5---1-------| pm..
Repeat B
C1 trill|----------------------------3-----------||----------------33332222--------4(5)----||-3333333----------------3333------------||--------22222222------------------------| pm.........................
C2 trill|----------------------------------------||----------------33332222--------4(5)----||-00000003333333---------33333333--------||----------------------------------------| pm.........................
Repeat C1
C2|---------------------------------||----------------33332222---------||-00000003333333---------33333333-||---------------------------------| pm..............................
Repeat B (palm muted) & B (no pm) Repeat C1, C2, C1 & C2
D p.h.|-------------------------5-5---------------------4-4-4-4-3-4-3~--||-------------------------3-3-4-4---------5-5-5-5-2-2-2-2-1-2-----||-2-2-2-2-2-2-2-2-------------2-2-333333333-3-3-3-----------------||-0-0-0-0-0-0-0-0-11111111----------------------------------------| pm..........................................................
Repeat D x 3
E1|----------------------------------|----------------------------------||---------2222----33333333----2222-|---------2222----33333333----2222-||-00000000----0000--------3333-----|-00000000----0000--------3333-----||----------------------------------|----------------------------------|
| pm..................................................................|| backing guitar ||----------------------------------|----------------------------------||-------------------------7-5-4-5--|-2---------4-2---2------\2--------||-------------------------5-3-2-3--|-0---------2-0---0------\0---/x\--||----------------------------------|----------------------------------| pm......... pm....
Repeat E1 (both guitars) x ? Repeat E1 w/ E1 Harmony (below) x ?
E1 (Harmony)|----------------------------------||----------------------------------||-?????????------------------------||----------------------------------| pm...............................
F Play ? Times|---------00001111-----------------|---------00001111-----------------||-11112222----------------00001111-|-11112222----------------00001111-||-----------------11110000---------|-----------------11110000---------||----------------------------------|----------------------------------|
| pm..................................................................|| Harmony ||---------????????-----------------|---------????????-----------------||-11112222--------????????---------|-11112222--------?????????????????||-------------------------????????-|----------------------------------||----------------------------------|----------------------------------| pm..................................................................
Repeat B (Just once with heavy PM) Repeat B x 2 Repeat C1, C2, C1 & C2 Repeat D x 2
D (Under Solo)|-------------------------5-5---------------------4-4-4-4-3-4-----||-------------------------3-3-4-4-5-5-5-5-5-5-5-5-2-2-2-2-1-2-3---||-2-2-2-2-2-2-2-2-3-3-3-3-----2-2-3-3-3-3-3-3-3-3-------------1---||-0-0-0-0-0-0-0-0-1-1-1-1-----------------------------------------|
pm..........................................................Solo:|-----------12-14-15-14-15-15p14p12-11-12-14-----|-------12-----------------------------------13--|-----12--12-------------------------------------|10h14-------------------------------------------|------------------------------------------------|------------------------------------------------
|-------------------------------------------------------------------------|10-12-13p12h13p12-10-----------------------------------------------------|---------------------12-11-9-8-9-10--------------------------------------|------------------------------------7-9-9br-9-7--------------------------|------------------------------------------------10-9-7-6-7-6-------------|-------------------------------------------------------------8-br-br-br--
|12p7---7----------------------------------|----8---8---------------------------------|-----9---9-9---------------------8-9------|----------9-----9-10---------9-10---10-9--|--------------10-----10-7--10-------------|------------------------------------------
|12p8---8--------------------------------------|----8---8---------------------8-9-8h9p8-------|-----9---9--9----9-10-----9-10----------10-9--|----------10---10----10-7---------------------|----------------------------------------------|----------------------------------------------
|14p10-----10----------14--14-17-14--------------|-----12-----12----------16--------16------------|-------11-----11--11----------------17-14-------|----------------12-----------------------16-13--|------------------------------------------------|------------------------------------------------
|24---19-17--20-19-20-19-17-16-17-------20-19--||--------------------------------18-17---------||----------------------------------------------||----------------------------------------------||----------------------------------------------||----------------------------------------------|
Repeat E2 x 16 Repeat F w/F x 2 The End.
Tap to rate this tab
 
# A B C D E F G H I J K L M N O P Q R S T U V W X Y Z