Cure - Homesick tab

#----------------------------------PLEASE NOTE---------------------------------#
#This file is the author's own work and represents their interpretation of the #
#song. You may only use this file for private study, scholarship, or research. #
#------------------------------------------------------------------------------##
From: stever@on-ramp.ior.com (SteveR)

        HomeSick  by the CURE


------3-0---------|--------3--0--------------|-1------------1---|-1------------------------|---2------------2-|----2---------------------|------------------|--------------------------|-0----------0-----|-------------------2------|------------------|-3--------------3---------|
-------0-----5-7^8|-7--5--3------3---------|---------1--------|---------5--3-----2-----|-2----------------|------------------------|----3-------------|------------------------|-5----------------|------------------------|------------------|------------------------|
-----3---0-------3|-0-------3----------------|-1----------------|---1----------------------|---2----------2---|------2-----------2-------|------------------|--------------------------|-0----------0-----|--------------------------|------------------|-3------------3-----------|
-------0----------|-12-10-8--8----5-----5--|----------1-----12|-13-12-10-18------5-----|-2-----------14---|------------------------|----3-------------|------------------------|-5----------------|------------------------|------------------|------------------------|
The Guitar during the above piano goesSOMETHING like:---------------|-----------------------------|---------------|-----------------------------|-2-----2--4--5-|-4-----4---5--4--------------|---------------|-----------------------------|---------------|-----------------------------|---------------|-----------------------------|
----------------|--------------------------|----------------|--------------------------|-5--4--2--2--4/5|--4--2--2---4--5/7--------|----------------|--------------------------|----------------|--------------------------|----------------|--------------------------|
-----------------|---------------------------|-----------------|---------------------------|-7/9-9-9-9-7-7-7-|-7\5-5--5--5--4-5-4--------|-----------------|---------------------------|-----------------|---------------------------|-----------------|---------------------------|
Ok you get the idea Now the guitar RIGHT before the Lyrics go
-------------------|-----------------------|-------------10----|-------------12--------|--------12-------12|-------14--------------|-----10------------|----12-----------------|-12----------------|-14--------------------|-------------------|-----------------------|
---------------|-----------------------------|------------0--|---------------0-------------|-------12------|---------12------------------|----15---------|-----15----------------------|-15------------|--15-------------------------|---------------|-----------------------------|
Lyrics START Stever@on-ramp.ior.com
Tap to rate this tab
 
# A B C D E F G H I J K L M N O P Q R S T U V W X Y Z