Customs – Shut Up Narcissus tab

Intro:

|------------------------------------------------||------------------------------------------------||-9-----------------------9----------------------||---7----7--10--777-5-7-----7----7--10-----------| x2|-----77----------------------77-------777-5-7---||------------------------------------------------|
Verse:
|----------------------------------------| |----------------------------------------| |------9----10------------------9----10--| |-7----9----10----7--------7----9----10--| x2|-7----7-----8----7--------7----7-----8--||-5---------------5--------5-------------|
Forever young, i'm gonna be forever young Nothing in this world compares to me
|----------------------------------------||---------------9-9-----------10~--------| |---------------9-9-----------10~--------| |-7-7---10-10---7-7---10-10----8~--------||-7-7---10-10---------10-10--------------||-5-5----8--8----------8--8--------------|
Spare me, ugly world...
|-------------------------------------------------------------||-------------------------------------------------------------| |-------------------------------------------------------------||-7-7---10-10---12-12---14-14---15-15~-----15-15-15-15-15-15--||-7-7---10-10---12-12---14-14---15-15~-----15-15-15-15-15-15--||-5-5----8--8---10-10---12-12---13-13~-----13-13-13-13-13-13--|
I think i'll never learn... Chorus:
|---------------------------------------| |-------------------------------| |---------------12-12-13-13-------------| |----------------------------12-| |-9-12--9-12-9--------------12-12-14-14-| |-9-12--9-12-9-----------9-9----| |---------------------------------------|x3 |--------------9-9-10-10--------| |---------------------------------------| |-------------------------------| |---------------------------------------| |-------------------------------|
Shut up narcissus take a better look and See what the water says Drink all her kisses Don't you think you need it then Children of god need love
|---------------------------------------| |---------------12-12-13-13-------------| |-9-12--9-12-9--------------12-12-14-14-| |---------------------------------------|x3 |---------------------------------------| |---------------------------------------|
|---------------------------------------| |---------------------------------------| |-9-12--9-12-9--------------------------| |--------------9-9-9-10-10-9-9-9/7-7~---| |---------------------------------------| |---------------------------------------|
Shut up narcissus take a better look and See what the water says Drink all her kisses Don't you think you need it then Children of god need love Verse:
|------------------------------------------------||------------------------------------------------||-9-----------------------9----------------------||---7----7--10--777-5-7-----7----7--10-----------| x4|-----77----------------------77-------777-5-7---||------------------------------------------------|
Forever young Needless to say, i'm on the run There's no place on this world for being me Forever young Destined to be, forever young I'm looking at the moon, but i can't leave
|----------------------------------------||---------------9-9-----------10~--------| |---------------9-9-----------10~--------| |-7-7---10-10---7-7---10-10----8~--------||-7-7---10-10---------10-10--------------||-5-5----8--8----------8--8--------------|
Spare me, ugly world...
|-------------------------------------------------------------||-------------------------------------------------------------| |-------------------------------------------------------------||-7-7---10-10---12-12---14-14---15-15~-----15-15-15-15-15-15--||-7-7---10-10---12-12---14-14---15-15~-----15-15-15-15-15-15--||-5-5----8--8---10-10---12-12---13-13~-----13-13-13-13-13-13--|
I think i'll never learn... Chorus
|---------------------------------------| |-------------------------------| |---------------12-12-13-13-------------| |----------------------------12-| |-9-12--9-12-9--------------12-12-14-14-| |-9-12--9-12-9-----------9-9----| |---------------------------------------|x3 |--------------9-9-10-10--------| |---------------------------------------| |-------------------------------| |---------------------------------------| |-------------------------------|
Shut up narcissus take a better look and See what the water says x2 Drink all her kisses Don't you think you need it then Children of god need love Break (directly after chorus)
|---------------------------------------------------------------------------||---------------------------13~--------------------13/15/13-----------------| |-12~--11-11~------9~-12-14---------------9~-12-14--------------------------| |---------------------------------10-10----------------------10-10-10-10-10-||---------------------------------10-10----------------------10-10-10-10-10-| |----------------------------------8--8-----------------------8--8--8--8--8-|
Love's, not for me Love's, not for me Chorus
|---------------------------------------| |-------------------------------| |---------------12-12-13-13-------------| |----------------------------12-| |-9-12--9-12-9--------------12-12-14-14-| |-9-12--9-12-9-----------9-9----| |---------------------------------------|x3 |--------------9-9-10-10--------| |---------------------------------------| |-------------------------------| |---------------------------------------| |-------------------------------|
Shut up narcissus take a better look and See what the water says x2 Drink all her kisses Don't you think you need it then Children of god need love Outro:
|------------------------------------------------||------------------------------------------------||-9-----------------------9----------------------||---7----7--10--777-5-7-----7----7--10-----------| x3|-----77----------------------77-------777-5-7---||------------------------------------------------|
|--------------------------------------x-x-||--------------------------------------x-x-||-9-----------------------9------------x-x-||---7----7--10--777-5-7-----7----7~----x-x-| |-----77----------------------77-------x-x-||--------------------------------------x-x-|
Please rate this tab:
x1.0