D Masiv - Cinta Sampai Di Sini tab

D' Masive  -  Cinta Sampai Di Sini

This is the way im playing the whole song.
Actually, i dont really like this song, cuz the main
riff (intro) is like "a letter to elise" by The Cure.
By the way, Hope you enjoy the song!!

 
Intro :

(0:01)--------------------------|---------------------------|------5-5---5----5---5~---|------5-5---5----5---5~----|----7-----7----7---7------|----7-----7----7---7-------|--------------------------|---------------------------|--------------------------|---------------------------|--------------------------|---------------------------|
(0:09)------------------------------------------------------|-------5-5---5-----5h6-5------------------------------|-----7-----7----7--------7-5---7s9-7~~----------------|-----------------------------7------------------------|------------------------------------------------------|------------------------------------------------------|
verse : Am G F mencoba tuk pahami Am G F mencari celah hatimu and so on chorus : Am C segalanya telah ku berikan G F tapi kau tak pernah ada pengertian and so on. pre verse 2:
(1:15)--------------------------|---------------------------|------5-5---5----5---5~---|------5-5---5----5---5~----|----7-----7----7---7------|----7-----7----7---7-------|--------------------------|---------------------------|--------------------------|---------------------------|--------------------------|---------------------------|
(1:22)------------------------------------------------------|-------5-5---5-----5h6-5------------------------------|-----7-----7----7--------7-5---4h5-4~~----------------|-----------------------------7------------------------|------------------------------------------------------|------------------------------------------------------|
verse chorus
solo :(2:31)--------------------------|---------------------------|--------------------------|----13--15--15s17--15~~----|--/14~~----\9---9s12~~----|---------------------------|--------------------------|---------------------------|--------------------------|---------------------------|--------------------------|---------------------------|
(2:40)--------------------------|---------------------------|--12--12h13--12-----------|---------------------------|----------------12--------|---------------------------|-------------------12~~---|---12h14--10~~-------------|--------------------------|---------------------------|--------------------------|---------------------------|
(2:44)--------------------------|---------------------------|--------------------------|---------------------------|--------------12--12s14~~-|-----\9----9s12~~----------|--9--9s10--12-------------|---------------------------|--------------------------|---------------------------|--------------------------|---------------------------|
(2:50)---------------------15~~-|---------------------------|-----13----15b17r15-------|------13----12h13--12~~----|--12----12----------------|--/12----12----------------|--------------------------|---------------------------|--------------------------|---------------------------|--------------------------|---------------------------|
(2:58)---------------------------------|-----12----13----12h13--13s15~~--|--12----12----12-----------------|---------------------------------|---------------------------------|---------------------------------|
chorus acoustic coda :
----------------3--------|----------0-----------------|----------1--------------|-----3~------1---1~---------|-----2~------2-----------|-----0~----------0~---------|-----2~------------------|-----2~----------2~---------|-----0~------------------|-----3~----------3~---------|-------------------------|----------------------------|
----------------------3--|-----3~~--------------------|-----0~---1---1h3--0-----|-----1~~--------------------|-----0~------------------|-----2~~--------------------|-----0~------------------|-----3~~--------------------|-----2~------------------|-----x----------------------|-----3~------------------|-----1~~--------------------|
That's it. This is my last tab. I dont make any tab anymore than this. I dont make any tab becouse you requested it. Its kind of wasting time.
Tap to rate this tab
 
# A B C D E F G H I J K L M N O P Q R S T U V W X Y Z