Daath - From The Blind tab version 2

-------------------------------------------------------------------------------
			     From The Blind (Solo) - Daath
-------------------------------------------------------------------------------
Tabbed by: Blokey

Tuning: CGCFAD
All chord/scale shapes are noted in standard tuning (not drop C)

This beginning bit sounds correct to the record but not live performances.|--------------------------------||--------------------------------||--------------------------------||---12p8/7h8p7/6h7p6-----8h11-12-||--------------------5h7---------||--------------------------------|
|--------------------------------------||-------------------9----9----8---8----||----------10----10---10--------9------||-12-11-12-----------------------------||--------------------------------------||--------------------------------------|
|-------------10-------------------13-12-11-10-||-------------------9----9----9----------------||----------10----10---12---13---12-------------||-12-11-12-------------------------------------||----------------------------------------------||----------------------------------------------|
|-------------13-------------------------||-------------------12----12---11----11--||----------13----13----13---------12-----||12-11-12--------------------------------||----------------------------------------||----------------------------------------|
|-------------13-----------------------16-15-14-13--||-------------------12----12----12------------------||----------13----13----16----15----13---------------||-12-11-12------------------------------------------||---------------------------------------------------||---------------------------------------------------|
|-12---12-12------12---12-12----12-11-10-9-10-11-12--12-12--||-11---11-11------11---11-11-------------------------11-11--||-12---12-12------12---12-12-------------------------12-12--||-12---12-12------12---12-12-------------------------12-12--||-----------------------------------------------------------||-----------------------------------------------------------|
|-17-13--------------------------------||-------15-----------------------------||----------14-13-14-10-9-10-7-6-7-6-7--||--------------------------------------||--------------------------------------||--------------------------------------|
Am Bdim Aharm min scale|----------------------------------||----------------------------------||-7--------------------------------||---7-----8-5-----7----------------||-----8-5-----7-4---8-7-5-7-5-4-5--||----------------------------------|
Riff bit|---------------------------------||---------------------------------||-7~---6--3~-----7--9--7--6~------||---------------------------------||-5~---4--1~-----5--7--5--4~------||---------------------------------|
pinch harm|------------10-13-10-------10-9-10-9--------------------------------------------||-13+---10-11----------11-10-----------11-10-8-----------------------------------||---------------------------------------------10-9-8-7-8-9-10-7---------7-6-7-6--||---------------------------------------------------------------8-7-8-7----------||--------------------------------------------------------------------------------||--------------------------------------------------------------------------------|
|--------------------------------------||--------------------------------------||--------------------------------------||-8-7---6b-----------------------------||-----8----8-5-0-4+--------------------||--------------------------------------|
Riff bit|---------------------------------||---------------------------------||-7~---6--3~-----7--9--7--6~------||---------------------------------||-5~---4--1~-----5--7--5--4~------||---------------------------------|
Careful... It comes in on the offbeat|--------------------------------------------10-12-10----------||-----------------------------------8-10-11-----------11-10-11-| cont.|-------7-9-7----10-7----------9-10----------------------------||-6-7-8-------8-------8-7-8-10---------------------------------||--------------------------------------------------------------||--------------------------------------------------------------|
Amin A# maj A min |-13\12-9--------------------------10-13-12-10----------10-4b-||---------10-------------------11-------------11-10-11--------||-------------9--------------10-------------------------------||----------------10-------12----------------------------------||-------------------12-13-------------------------------------||-------------------------------------------------------------|
{ legend | / slide up | \ slide down | h hammer-on | p pull-off | ~ vibrato | + harmonic | x Mute note | b Bend | pb Pre-bend | br Bend release | pbr Pre-bend release | brb Bend release bend }
Tap to rate this tab
 
# A B C D E F G H I J K L M N O P Q R S T U V W X Y Z