Dad Rocks - Nothing Keeps Up tab

‘Nothing Keeps Up’
by Dad Rocks!
Digital Age EP
http://dadrocks.bandcamp.com/
http://www.youtube.com/watch?v=y8rff5jLH_M

Tuning:
D
A
F#
D
A
D

Intro/Verse:

|----------||-------12-||---0------| x4|-----0----||----------||-0--------|
|-----------||--------12-||----0------| x4|------0----||-10--------||-----------|
|----------||-------10-||---0------| x2|-----0----||----------||-8--------|
|----------||-------9--||---0------| x2|-----0----||----------||-9--------|
|----------||-------5--||---0------| x2|-----0----||----------||-5--------|
|-------------------------------||-------5----------5-(slide up)-||---0---------0-----------------| X1|-----0---------0---------------||-------------------------------||-4---------7-------------------|
Chorus:
|------------------------------------||------------------------------------||---------5p0--------------3h0-------||-----0---------0------0---------0---||------------------------------------||-0h5---5-----5----0h4---4-----4-----|
|------------------------------------||--------------0----------------0----||------0---------------0-------------||------------------------------------||------------------------------------||-0h12---/4p0-----0h12----/4p0-------|
|--------0----------0----------0----------0---||--------0----------0----------0----------0---||--------0----------0----------0----------0---||--------0----------0----------0----------0---||--------0----------0----------0----------0---||-0h2h4--0---0h2h4--0--0h2h4h--0--0h2h4h--0---|
Repeat Verse- Outro/Chorus:
|---------------------------||---------------------------||-----0-------5h0-----------||-----------0-----0----0----||---------0-----------------||-0h5---5-----------0h5-----|
|---------------------------||---------------------------||-----0-------3h0-----------||-----------0-----0-----0---||---------0-----------------||-0h4---4-----------0h4-----|
|------------------------------------||--------------0----------------0----||------0---------------0-------------||------------------------------------||------------------------------------||-0h12---/4p0-----0h12----/4p0-------|
|--------0----------0----------0----------0---||--------0----------0----------0----------0---||--------0----------0----------0----------0---||--------0----------0----------0----------0---||--------0----------0----------0----------0---||-0h2h4--0---0h2h4--0--0h2h4h--0--0h2h4h--0---|
Tap to rate this tab
 
# A B C D E F G H I J K L M N O P Q R S T U V W X Y Z