Dance Gavin Dance Pierce The Veil - She Makes Dirty Words Sound Pretty tab

Saw a couple of tabs but i think mune is almost 100% acurate. Standard tuning and im pretty sure you can figure out the strumming yourselves. This is first tab so sorry if its hard to read Enjoy
Intro|------------------------------------------------||-4-4---4-4---4-4---4-55555-444------------------||-4-4---4-4---4-4---4-44444-444------------------||-6-6---6-6---6-6---6-66666-666----------------||-7-7---7-7---7-7---7-77777-777------------------||------------------------------------------------|
|---------------------77777-555------------------||-5-5---5-5---5-5---5-55555-555------------------||-5-5---5-5---5-5---5-55555-555------------------||-7-7---7-7---7-7---7-77777-777---------------||------------------------------------------------||------------------------------------------------|
|------------------------------------------------||-4-4---4-4---4-4---4-55555-444------------------||-4-4---4-4---4-4---4-44444-444------------------||-6-6---6-6---6-6---6-66666-666----------------||-7-7---7-7---7-7---7-77777-777------------------||------------------------------------------------|
|------------------------------------------------||-5-5---5-5---5-5---5-77777-555------------------||-5-5---5-5---5-5---5-55555-555------------------||-7-7---7-7---7-7---7-77777-777---------------||------------------------------------------------||------------------------------------------------|
Chorus (Slight Change)|------------------------------------------------||-4-4---4-4---4-4---4-44444-444------------------||-4-4---4-4---4-4---4-44444-444------------------||-6-6---6-6---6-6---6-66666-666----------------||-7-7---7-7---7-7---7-77777-777------------------||------------------------------------------------|
|------------------------------------------------||-5-5---5-5---5-5---5-77777-555------------------||-5-5---5-5---5-5---5-55555-555------------------||-7-7---7-7---7-7---7-77777-777---------------||------------------------------------------------||------------------------------------------------|
|------------------------------------------------||-4-4---4-4---4-4---4-55555-444------------------||-4-4---4-4---4-4---4-44444-444------------------||-6-6---6-6---6-6---6-66666-666----------------||-7-7---7-7---7-7---7-77777-777------------------||------------------------------------------------|
|------------------------------------------------||-5-5---5-5---5-5---5-77777-555------------------||-5-5---5-5---5-5---5-55555-555------------------||-7-7---7-7---7-7---7-77777-777---------------||------------------------------------------------||------------------------------------------------|
Verse A|------------------------------------------------||-4-4--4444444444444444--5-5--5555555555555555---||-4-4--4444444444444444--5-5--5555555777777555---||-6-6--6666666666666666--7-7--7777777777777777---||-7-7--7777777777777666--------------------------||------------------------------------------------|
|-----------------------------------------------------||-4-4--4444444444444444--5-5--5555555----5-----5---5--||-4-4--4444444444444444--5-5--5555555------5----5-----||-6-6--6666666666666666--7-7--7777777--7-----7----7---||-7-7--7777777777777666-------------------------------||-----------------------------------------------------|
Verse B|-------------------||-44--4-4--44--4----||-44--4-4--44--4----| x2|-66--6-6--66--6----||-77--7-7--77--7----||-------------------|
|------------------------||-55--5-5--55--5555555555||-55--5-5--55--5577777555||-77--7-7--77--7777777777||------------------------||------------------------|
Verse B Chorus Verse B x2
Verse C|------------------------------------------------||------------------------------------------------||--6666666666666666---2222222222222222-----------||--6666666666666666---2222222222222222----------||--4444444444444444---0000000000000000-----------||------------------------------------------------|
|------------------------------------------------||------------------------------------------------||--6666666666666666---22222222-2-----------------||--6666666666666666---22222222-2-Let ring-------||--4444444444444444---00000000-0-----------------||------------------------------------------------|
Chorus x2 (but with different strumming, You can figure it out :D)
Outro aka Best Part!|---------------------------||-------10-10/12-10-9--9~---||------9---------------9~---||---7/9----------------9~---||---------------------------||---------------------------|
Hope you liked it.
Tap to rate this tab
 
# A B C D E F G H I J K L M N O P Q R S T U V W X Y Z