Dance Gavin Dance - People You Know tab version 3

people you know
by dance gavin dance off their self-titled album.

tabbed by elijahgallegos
elijahinHD@gmail.com

key:
B: Bend.
H: hammer on.
P: pull-off.
~: let ring.
x: muted note (dead note, palm mute etc)



tuning: drop yours down to Drop D, if you haven't already.

heres the first riff:(0:00-0:08)|---------------------------------|-------------------------------||---------------------------------|---------------6-5---6--5------||---------------------------5-----|-----------5h7----7----------5-||---------------------7-5----7----|-------5h7-------------7--7----||------8--10------7-------8---7---|---7h8-------------------------||--0-0---0----0-7---0-------------|-8-----------------------------|
|----------------------------------|---------------------------------||----------------------------------|---------------------6-5---------||------------------------------5---|-------------------7-----7-------||----------------------7-5------7--|----------5h7h8------------------||-------8---10------7------8-----7-|-----7h8-------------------------||--0-0---0-----0-7---0-------------|--8------------------------------|
SOMEONE PLEASE! lets write a script thats made for me, that makes you people want to see me. i got a wish, i got a wish, that all of this was something special.
|--------------------------------------||--------------------------------------||--9-9-9-9-9-9--10-10-10--12-12-12-----||--x-x-x-x-x-x---x--x--x---x--x--x-----| x3|--7-7-7-7-7-7---8--8--8--10-10-10-----||--------------------------------------|
|-------------------||-------------------||--9-9-9--7-7-7-----||--x-x-x--x-x-x-----| x2|--7-7-7--5-5-5-----||-------------------|
|-----------------------------------||-----------------------------------||--9-9-9-9-9-9--10-10-10--12-12-12--||--x-x-x-x-x-x---x--x--x---x--x--x--| x2|--7-7-7-7-7-7---8--8--8--10-10-10--||-----------------------------------|
or i could just get a real fuckin' job.
|----------------------||----------------------||--17--14--14--12--12--||---x---x--x----x--x---||--15--12--12--10--10--||----------------------|
i am a prick, look at my throat. i can get lucky finding success, i'm a bitch. IMA GO GET SOME NEW EXPENSIVE SHIT.
|----------------------||----------------------||--17--14--14--12--12--||---x---x--x----x--x---||--15--12--12--10--10--||----------------------|
all that i hurt, emotions, they suck.
|---------------------------------||---------------------------------||--9-9-9-9-9-9--10-10-10--12-12-12||--x-x-x-x-x-x---x--x--x---x--x--x| x2|--7-7-7-7-7-7---8--8--8--10-10-10||---------------------------------|
I'll just tell people, i don't give a fuck about that shit.|----------------------||----------------------||--14-14-14----12-12-12||---x--x--x-----x--x--x||--12-12-12----10-10-10||----------------------|
this next part is like a solo in way, listen to the song to learn the beat.
|----------------------------||----13----13----13----13----||----------------------------||--0-----0-----0-----0-------||----------------------------||----------------------------|
|----------------------------||----10---10----10----10-----||----------------------------||--0-----0-----0-----0-------||----------------------------||----------------------------|
ain't nobody fucking with me...maaan.ain't nobody fuckin' with me.|--17-13------------------------------||--------15-13-----13-15-17p15-13-----| pick fast on this one.|---------------14--------------------| play this & the riffs above x2.|-------------------------------------||-------------------------------------||-------------------------------------|
listen to the sound of my voice croaking it's drama across an orchestra of friendly faces singing along with a dying concern.
|------------------------------------------||------------------------------------------||--14--17--12--14--7-----14--17--12--14----| let these ring for|---x---x---x---x--x------x---x---x---x----| half a second.|--12--15--10--12--5-----12--15--10--12-12-||------------------------------------------|
listen to the sound of my voice croaking it's drama across an argh-restra of friendly singing along with a dying concern to my BULL SHIEEEEET.
|-------------------------------------------||-------------------------------------------||--14-14-14--17-17-17--12-12-12--14-14-14---||---x--x--x---x--x--x---x--x--x---x--x--x---||--12-12-12--15-15-15--10-10-10--12-12-12---||-------------------------------------------|
|--------------------------------||--------------------------------||--7-7-7--5-5-5--7-7-7--5-5-5----||--x-x-x--x-x-x--x-x-x--x-x-x----||--5-5-5--3-3-3--5-5-5--3-3-3----||--------------------------------|
|---------------------------------------------||---------------------------------------------||--14-14-14--17-17-17--12-12-12--14-14-14-----||---x--x--x---x--x--x---x--x--x---x--x--x-----||--12-12-12--15-15-15--10-10-10--12-12-12--12-||---------------------------------------------|
|---------------------------------------------------------||---------------------------------------------------------||--15-15-15--17-17-17--12-12-12--14-14-14--10-10-10--9-9-9||---x--x--x---x--x--x---x--x--x---x--x--x---x--x--x--x-x-x| x4|--13-13-13--15-15-15--10-10-10--12-12-12---8--8--8--7-7-7||---------------------------------------------------------|
|--------------------------------------||-----------13-17-13----------13-17-13-||--------15----------------15----------||-----14----------------14-------------| play this x3.|--13----------------13----------------||--------------------------------------|
|-----------------------||-----------------------||-------------14--10----| play this x3.|--12-12--15------------||-----------------------||-----------------------|
well thats the whole song. your welcome. :D LYRICS: Someone please! Let's write a script that's made for me That makes you people want to see me I've got a wish, I've got a wish That all of this was something special I need a drink, I need a pill No way I'll stop until you're sober She's already said that I was on drugs, Let's give some money to that bitch. Or I could just get a real fucking job I am a prick, look at me go I could get lucky finding success, I'm a bitch Imma go get some new expensive shit All that I hurt, emotions they suck I'll just tell people I don't give a fuck about that shit Ain't nobody fucking with me, man Ain't nobody fucking with me Listen as the sound of my voice, croaking it's drama across an orchestra of friendly faces singing along their dying concern Listen as the sound of my voice, croaking it's drama across an orchestra of friendly faces singing along, their dying concern to my bullshit Where did our honor go? I think I know We're always fucking each other in bathrooms at parties Where did my money go? I spent it on blow You know that I fucked all my homies ho's Where did our morals go? I left them in Cabo My parents can pay for the abortion, you know Who has a plan? We hold out our hands, and hope for a free ride to successful endeavors So bring on the pliers, something to bite I am too cynical to say I don't give a fuck Bring on the pliers, something to bite I am too cynical to say I don't give a fuck I need money I need clothes I need women I need blow Something is very fucking wrong... Resting your head on your best friend's sister's shoulder Your mother's job is to fuck all your neighbors Bodies thrusting to the beat of our shame Where did our honor go? I think I know We're always fucking each other in bathrooms at parties Where did my money go? I spent it on blow You know that I fucked all my homies ho's Where did our morals go? I left them in Cabo My parents can pay for the abortion, you know Who has a plan? We hold out our hands, and hope for a free ride to successful endeavors Give my regards to all you SHADY FUUUUUCKS. Thorn in my fucking side! Loyalty... Honesty... Trust... Respect... Humility... Sincerity... We are all so full of fucking shit We are all so full of fucking shit if you listen to the whole song, you can hear Johnny or Kurt say this with some kind of mouse ;) "Uneasy hearts weigh the most, oh uneasy hearts they weigh the most... Maybe i can find a place for you with all the things you do, I have no clue, watching you, lately I, have been hoping to, in thought of what to say, what they don't find out"
Tap to rate this tab
 
# A B C D E F G H I J K L M N O P Q R S T U V W X Y Z