Dance Gavin Dance – Lemon Meringue Tie tab ver. 6

Intro:--------------------------------------------------|---------11-12--10h12p10----12-11-----------------|--7-------------------------12-11\8---7-7---------|----9-------------------------------9-------------|------10------------------------------------------|--------------------------------------------------| 4x
tremelo picking--------------------------------------------------|---15---12---15---12---15---12---15---12----------|--------------------------------------------------|--------------------------------------------------|--------------------------------------------------|--------------------------------------------------|
========================================================= "can you see at all.."
--------------------------------------------------|-----0-10-12-0-12-15-0-15-17-0-10-10^----8--------|--------------------------------------------------|--------------------------------------------------|--------------------------------------------------|--------------------------------------------------|
--------------------------------------------------|---0-10-12-0-12-15-0-15-17-0----------------------|-----------------------------11-0-11^-------------|--------------------------------------------------|--------------------------------------------------|--------------------------------------------------|
--------------------------------------------------|------10-12-0-12-15-0-15-17-0-10-10^----8---------|--11----------------------------------------------|--------------------------------------------------|--------------------------------------------------|--------------------------------------------------|
--------------------------------------------------|--0-10-12-0-12-15-0-15-17-0-19-0-19^--------------|--------------------------------------------------|--------------------------------------------------|--------------------------------------------------|--------------------------------------------------| 2x
========================================================
------------------12--------12--------12----------|--------------------------------------------------|--9--11--12h14p12-----14p12-----14p12-------------|--------------------------------------------------|--------------------------------------------------|--------------------------------------------------|
"and now you go.."
--------------------------------------------------|-----0-10-12-0-12-15-0-15-17-0-10-10^----8--------|--------------------------------------------------|--------------------------------------------------|--------------------------------------------------|--------------------------------------------------|
--------------------------------------------------|---8-10-12-0-12-15-0-15-17-0----------------------|-----------------------------11-0-11^-------------|--------------------------------------------------|--------------------------------------------------|--------------------------------------------------|
--------------------------------------------------|------10-12-0-12-15-0-15-17-0-10-10^----8---------|--11----------------------------------------------|--------------------------------------------------|--------------------------------------------------|--------------------------------------------------|
--------------------------------------------------|--0-10-12-0-12-15-0-15-17-0-19-0-19^--------------|--------------------------------------------------|--------------------------------------------------|--------------------------------------------------|--------------------------------------------------|
--------------------------------------------------|-----0-10-12-0-12-15-0-15-17-0-10-10^----8--------|--------------------------------------------------|--------------------------------------------------|--------------------------------------------------|--------------------------------------------------|
--------------------------------------------------|---8-10-12-0-12-15-0-15-17-0----------------------|-----------------------------11-0-11^-------------|--------------------------------------------------|--------------------------------------------------|--------------------------------------------------|
--------------------------------------------------|--------------------------------------------------|---5-5-5-5-5-5-5-5--2-2-2-2-2-2-2-2---------------|---5-5-5-5-5-5-5-5--2-2-2-2-2-2-2-2---------------| ---3-3-3-3-3-3-3-3--0-0-0-0-0-0-0-0---------------| --------------------------------------------------|
=========================================================--------------------------------------------------|--11-11-11--9-9-9--7-7-7--------------------------|--------------------------7-7-7---9-9-9-9---------|--------------------------------------------------| --------------------------------------------------| --------------------------------------------------|
--------------------------------------------------|--11-11-11--9-9-9--7-7-7--2-2-2--4-4-4-4----------|--x--x--x---x-x-x--x-x-x--x-x-x--x-x-x-x----------|--9--9--9---7-7-7--5-5-5--0-0-0--2-2-2-2----------| --------------------------------------------------| --------------------------------------------------|=========================================================
"I don't know why.."
tremelo picking--------17-15-14----------------------------------|--12-15----------15-12-15-10--12p0-12p0-----------|--------------------------------------------------|--------------------------------------------------|--------------------------------------------------|--------------------------------------------------|
--------17-15-14-----------14---------------------|--12-15----------15-17-----17^--------------------|--------------------------------------------------|--------------------------------------------------|--------------------------------------------------|--------------------------------------------------| 2x
====================================================== "Stage lights are burning up, running faster to this spot, staring at these faces, torn all these places, and I wont go..."
---------------------------------10----14-12------|--------15--15-10-12-10---10--------12------------|-----------------------12-----12------------------|--12----------------------------------------------|-----14-------------------------------------------|--------------------------------------------------|
---------------------------------10----14-12------|--------15--15-10-12-10---10--------12------------|-----------------------12-----12------------------|--12----------------------------------------------|-----14-------------------------------------------|--------------------------------------------------|
---------------------------------10----14-12------|--------15--15-10-12-10---10--------12------------|-----------------------12-----12------------------|--12----------------------------------------------|-----14-------------------------------------------|--------------------------------------------------|
---15-15-15-15-14-14-14-14------------------------|--------------------------------------------------|--------------------------------------------------|--------------------------------------------------|--------------------------------------------------|--------------------------------------------------|
---------------------------------10----14-12------|--------15--15-10-12-10---10--------12------------|-----------------------12-----12------------------|--12----------------------------------------------|-----14-------------------------------------------|--------------------------------------------------|
---------------------------------10---------------|--------15--15-10-12-10---10--------12-10-12------|-----------------------12-----12------------------|--12----------------------------------------------|-----14-------------------------------------------|--------------------------------------------------|
---------------------------------10----14-12------|--------15--15-10-12-10---10--------12------------|-----------------------12-----12------------------|--12----------------------------------------------|-----14-------------------------------------------|--------------------------------------------------|
---15--14-----------------------------------------|-----------15--12--10-----------------------------|--------------------------------------------------|--------------------------------------------------|--------------------------------------------------|--------------------------------------------------|======================================================"Mace yourself, blame someone elsefall face down fluid leaking out your eyeballs"
----7-7-7---7-7-7---7--7--7--7---7777777----------|----5-5-5---5-5-5---5--5--5--5---5555555----------| ----5-5-5---5-5-5---5--5--5--5---5555555----------|--------------------------------------------------| --------------------------------------------------|--------------------------------------------------|
----14--------------------------------------------|----12--------------------------------------------|----12--------------------------------------------| ...this chord.shred it,just like above--------------------------------------------------| then move down to the first chord again--------------------------------------------------| and repeat.--------------------------------------------------|
========================================================= slow part
--------------------------------------------------|--------------------------------------------------|--------------------------------------------------|--5/12-12-12-12\5---------------------------------|--------------------------------------------------|--------------------------------------------------| 16x
Breakdown
--------------------------------------------------|-----0-10-12-0-12-15-0-15-17-0-10-10^----8--------|--------------------------------------------------|--------------------------------------------------|--------------------------------------------------|--------------------------------------------------|
--------------------------------------------------|---0-10-12-0-12-15-0-15-17-0----------------------|-----------------------------11-0-11^-------------|--------------------------------------------------|--------------------------------------------------|--------------------------------------------------|
--------------------------------------------------|-----0-10-12-0-12-15-0-15-17-0-10-10^----8--------|--------------------------------------------------|--------------------------------------------------|--------------------------------------------------|--------------------------------------------------|
--------------------------------------------------|--10-0-8-0-7-5-3-0-3-5^5^5------------------------|--------------------------------------------------|--------------------------------------------------|--------------------------------------------------|--------------------------------------------------|
"and i don't know why.."
tremelo picking--------17-15-14----------------------------------|--12-15----------15-12-15-10--12p0-12p0-----------|--------------------------------------------------|--------------------------------------------------|--------------------------------------------------|--------------------------------------------------|
--------17-15-14-----------14---------------------|--12-15----------15-17-----17^--------------------|--------------------------------------------------|--------------------------------------------------|--------------------------------------------------|--------------------------------------------------| 2x *made a few changes*
Please rate this tab:
x1.0