Dark Tranquillity – Letha tab

Riff A|--------------------------------------------------------||-------------0------------------------------------------||-1--0--0---2---2-----2------2---------------------------||-2--2--0---------2-----2-------2------------------------||-2--2--2-----------------0--------0---------------------||--------------------------------------------------------|
|--------------------------------------------------------||--------------------------------------------------------||----------2---------------4-----------------------------||--------3---3----------5----5---------------------------||------3-------3------5--------5-------------------------||-0-1--------------/3------------------------------------|
|--------------------------------------------------------||---------1-------0--------------------------------------||-------2---2--------2-----2-----------------------------||----2--------2--------2-----2---------------------------||-0-----------------------------0------------------------||--------------------------------------------------------|
|--------------------------------------------------------||--------------------------------------------------------||----------2---------------4-----------------------------||--------3---3----------5----5---------------------------||------3-------3------5--------5-------------------------||-0-1--------------/3------------------------------------|
|--------------------------------------------------------||---------1-------0--------------------------------------||-------2---2--------2-----2-----------------------------||----2--------2--------2-----2---------------------------||-0-----------------------------0------------------------||--------------------------------------------------------|
Riff B|--------------------------------------------------------||-1-1-0----0--0----------0-------------------------------||--------2------2-0-2--2---2------2----------------------||----------------------------2------2--------------------||------------------------------0------0------------------||--------------------------------------------------------|
|--------------------------------------------------------||-1-1-0----0--0----------0-------------------------------||--------2------2-0-2--2---2------2----------------------||----------------------------2------2--------------------||------------------------------0------0------------------||--------------------------------------------------------|
Riff A|--------------------------------------------------------||--------------------------------------------------------||----------2---------------4-----------------------------||--------3---3----------5----5---------------------------||------3-------3------5--------5-------------------------||-0-1--------------/3------------------------------------|
|--------------------------------------------------------||---------1-------0--------------------------------------||-------2---2--------2-----2-----------------------------||----2--------2--------2-----2---------------------------||-0-----------------------------0------------------------||--------------------------------------------------------|
Riff B|--------------------------------------------------------||-1-1-0----0--0----------0-------------------------------||--------2------2-0-2--2---2------2----------------------||----------------------------2------2--------------------||------------------------------0------0------------------||--------------------------------------------------------|
|--------------------------------------------------------||-1-1-0----0--0----------0-------------------------------||--------2------2-0-2--2---2------2----------------------||----------------------------2------2--------------------||------------------------------0------0------------------||--------------------------------------------------------|
Riff C|--------------------------------------------------------||--------------------------------------------------------||--------------------------------------------------------||----2------2------2------2-0-2-3-----3------3-----3-2-0-||------0------0------0------------0-----0------0---------||-0------0------0------0------------1-----1------1-------|
|--------------------------------------------------------||--------------------------------------------------------||--------------------------------------------------------||-2------2------2--------2-0------------------------0----||---0------0-------0---------3-2------3-----2-----3------||-----0------0-------0------------0-0---0-0---0-0--------|
|--------------------------------------------------------||--------------------------------------------------------||--------------------------------------------------------||----2------2------2------2-0-2-3-----3------3-----3-2-0-||------0------0------0------------0-----0------0---------||--------0------0------0------------1-----1------1-------|
|--------------------------------------------------------||--------------------------------------------------------||--------------------------------------------------------||-2------2------2--------2-0-----------------------------||---0------0-------0---------3-2-------------------------||-----0------0-------0-----------------------------------|
Please rate this tab:
x1.0