Dark Tranquillity - Midway Through Infinity tab

Dark Tranquillity - Midway Through Infinity
Tabbed and transcribed by HellPatrol (hellpatrol69x@geocities.com)
Listen to the record for timing and how much each
riff is played.
This and other tabs can be found on my page.
Go check it out at http://www.geocities.com/BourbonStreet/Quarter/1571/
Tune down to Eb (.5 steps)

I wrote this straight through the song (riffs are not
numbered as in my other transcriptions), because there
is just so much different stuff in the song, i'll end up
with 200 riffs if I did it my regular way which would
barely repeat themselves.

|-------------------------------------||-------------------------------------||-------------------------------------||----------5-5-5-5----------4-4--4----||----------3-3-3-3----------2-2--2----||-00000000---------00000000-----------|
|---------------------------------------------------------||---------------------------------------------------------||---------------------------------------------------------||-9"------------------------7"-9"----------9"-7"----------||---10"--7"--10"-9"------9"-------10"--7"--------10"-9"---||--------------------7"-----------------------------------|
|------------------------||------------------------||------------------------||-7"--9"--12"-10"-9"-----||--------------------10"-||------------------------|
|-7p3p0-3-7p3p0-3-7p3p0-3-7p3p0-3-2------2--5--||------0-------0-------0-------0---------------||-------------------------------------4--------||----------------------------------------------||----------------------------------------------||----------------------------------------------|
| ||----------------------------------------------||----------------------------------------------||-4"----------------------------------------2"-||----5"-------------------2"--5"--4"-----4"----||-------------------------------------2"-------||----------------------------------------------|
|-7p3p0-3-7p3p0-3-7p3p0-3-7p3p0-3-7--5-3-3-2-0--2---3--||------0-------0-------0-------0-----------------------||------------------------------------------------------||------------------------------------------------------||------------------------------------------------------||------------------------------------------------------|
| ||------------------------------------------------------||------------------------------------------------------||-4"-------------------------------------------------2-||----5"-------------------2"--5"--4"------------4--4---||----------------------------------------2--2-5--------||------------------------------------------------------|
|--------------------------------------------||--------------------------------------------||-4"----------4"----------2"----------2"-----||----5"----5"----5"----5"----4"----4"--------||-------7"----------7"----------2"-----------||--------------------------------------------|
|--------------------------------------------------||--------------------------------------------------||-4"----------4"----------7"----------7"-5"-4"-----||----5"----5"----5"----5"----7"-4"-7"----------7"--||-------7"----------7"-----------------------------||--------------------------------------------------|
drums
|----------||----------||-4--2-----||-2--2-----||-2--0--5--||-------3--|
|--------------------------------------------||--------------------------------------------||------------------------------------7-------||-2--------------3------7---7----------------||-2-------2------5------5---5-3------5--3-2--||-0--0000---0000---7777---5-----5555---------|
|------------------------------------------------------||------------------------------------------------------||------------------------------------------------------||--------9---9-----------3------7---7--2---------------||-3------7---7-2------2~-5-5555-5---5--3-------5----2--||-5-5555---7---0-0000-------------5------5555-----3----|
|-------------------------------------------------||----------3"5"-----------------------3"5"6"5"3"--||-5------5"----4------4"-2"4"5------5"----------5"||-------------------------------------------------||---0000---------2222----------0000---------------||-------------------------------------------------|
|---------------------------------------------------||----------3"5"-------------------------------------||-5------5"----4------4"-5"7"9------5"7"9"10"9"7"---||------------------------------------------------10"||---0000---------2222----------7777-----------------||---------------------------------------------------|
|------------------------------------------------------||------------------------------------------------------||------------------------------------------------------||-----------------------------------3------7p5p3-7p5p3-||-3------7p5p3-7p5p3-2------2---------5555-------------||---5555---------------0000---000-0--------------------|
|----------------||----------------||----------------||-2--------------||---3333-5----2--||-----------3----|
|------------------------------------------------------||------------------------------------------------------||------------------------------------------------------||-----------------------------------3------7p5p3-7p5p3-||-3------7p5p3-7p5p3-2------2---------5555-------------||---5555---------------0000---000-0--------------------|
|----------------||----------------||----------------||-2--------------||---3333-5----2--||-----------3----|
|--------0-----||----------3-5-||-5------5-----||--------------||---0000-------||--------------|
|---------------------------------------------------------||---------------------------------------------------------||-5------5---5--4------4---4--5------5---5-4------4---4---||-2------2---2--2------2---2--2------2---2-2------2---2---||---0000---0------0000---0------0000---0-----0000---0-----||---------------------------------------------------------|
| ||---------------------------------------------------------||-----------------------------5---------------------------||-----------------------------------------------------4-5-||---------------------------------------------------------||---------------------------------------------------------||---------------------------------------------------------|
|---------------------------------------------------------||---------------------------------------------------------||-5------5---5--4------4---4--5------5---5-4------4---4---||-2------2---2--2------2---2--2------2---2-2------2---2---||---0000---0------0000---0------0000---0-----0000---0-----||---------------------------------------------------------|
| ||---------------------------------------------------------||------------------------------------------5"-------------||-2"-----5"-----4"------------5"----------------------7p5-||------------------------------------7"-------------------||---------------------------------------------------------||---------------------------------------------------------|
|---------------------------------------------------------||---------------------------------------------------------||-5------5---5--4------4---4--5------5---5-4------4---4---||-2------2---2--2------2---2--2------2---2-2------2---2---||---0000---0------0000---0------0000---0-----0000---0-----||---------------------------------------------------------|
| ||---------------------------------------------------------||------------------------------------------5"-------------||-2"-----5"-----4"------------5"----------------------4h5-||------------------------------------7"-------------------||---------------------------------------------------------||---------------------------------------------------------|
|---------------------------------------||---------------------------------------||-5------5--------5--4------4--------4--||-2------2--------2--2------2--------2--||---0000------0--------0000------0------||---------------------------------------|
| ||---------------------------------------||---------------------------------------||-2"-----5p4p2-5p4p2-4"-----7p5p4-7p5p4-||---------------------------------------||---------------------------------------||---------------------------------------|
|---------------------------------------||---------------------------------------||-5------5--------5--4------4--------4--||-2------2--------2--2------2--------2--||---0000------0--------0000------0------||---------------------------------------|
| ||---------------------------------------||--------------------5"-----8p6p5-8p6p5-||-5"-----9p7p5-9p7p5--------------------||---------------------------------------||---------------------------------------||---------------------------------------|
|---------------------------------------------------------------------||----------------------------------------------------5"---8p6p5-8p6p5-||-2"---5p4p2-5p4p2-4"---7p5p4-7p5p4-5"---9p7p5-9p7p5------------------||---------------------------------------------------------------------||---------------------------------------------------------------------||---------------------------------------------------------------------|
|-------------------------------------||-------------------------------------||-------------------------------------||----------5-5-5-5----------4-4--4----||----------3-3-3-3----------2-2--2----||-00000000---------00000000-----------|
|-----------------------------||-----------------------------||-----------------------------||-5"-----------------------7"-||---7"---10"-9"-7"-9"--10"----||-----------------------------|
|-------------------------------------------------||-------------------------------------------------||-------------------------------------------------||-9"------------9"-7"---------7"--10"---------7"--||----10"---7"---------10"-9"----------------9"----||-------------------------------------7--7--------|
|----------------------5"--8"--7"------------||-----8"-----7"-----5"------------8"--7"-----||----------------------------------------7"--||--------------------------------------------||-7-------7------6---------------------------||--------------------------------------------|
|----------------------5"--8"--7"------------||-----8"-----7"-----5"------------8"--7"-----||----------------------------------------7"--||--------------------------------------------||-7-------7------6---------------------------||--------------------------------------------|
| ||-----7"-----5"-----5"-----5"--3"--------2"--||--------------------------------------------||--------------------------------------------||--------------------------------------------||--------------------------------------------||--------------------------------------------|
|--------------------------------------------||-------5"----------------6"-----------------||-5"---------4"------7"---5"--4"-------------||-7"-------------6"--7"-------6"---7"--9"----||--------------------------------------------||--------------------------------------------|
|--------------------------------------------||-------5"----------------6"-----------------||-5"---------4"------7"---5"--4"-------------||-7"-------------6"--7"-------6"---7"--9"----||--------------------------------------------||--------------------------------------------|
|-----------------------------------------------------------||-----------------------------------------------------------||-----------------------------------------------------------||--------5---5---------2-------3------7---7--2--------------||-3------7---7--2------2-------5-5555-5---5--3-3333-5----2--||-5-5555---7----0-0000---000-0----------5--------------3----|
|-----------------------------------------------------------||-----------------------------------------------------------||----------------------4~-----------------------------------||--------5---5-----------------3------7---7--2--------------||-3------7---7--2--------------5-5555-5---5--3-3333-5----2--||-5-5555---7----0-0000------------------5--------------3----|
|-------------------------------------------------||----------3"5"-----------------------3"5"6"5"3"--||-5------5"----4------4"-2"4"5------5"----------5"||-------------------------------------------------||---0000---------2222----------0000---------------||-------------------------------------------------|
|---------------------------------------------------||----------3"5"-------------------------------------||-5------5"----4------4"-5"7"9------5"7"9"10"9"7"---||------------------------------------------------10"||---0000---------2222----------7777-----------------||---------------------------------------------------|
|------------------------------------------------------||------------------------------------------------------||------------------------------------------------------||-----------------------------------3------7p5p3-7p5p3-||-3------7p5p3-7p5p3-2------2---------5555-------------||---5555---------------0000---000-0--------------------|
|----------------||----------------||----------------||-2--------------||---3333-5----2--||-----------3----|
|------------------------------------------------------||------------------------------------------------------||------------------------------------------------------||-----------------------------------3------7p5p3-7p5p3-||-3------7p5p3-7p5p3-2------2---------5555-------------||---5555---------------0000---000-0--------------------|
|----------------||----------------||----------------||-2--------------||---3333-5----2--||-----------3----|
|----------------------------------------------||----------------------------------------------||-----4"---2"----------------------------------||-5"------------4"---7"-9"-10"-7"-6"-7"-9"-10"-||----------------------------------------------||----------------------------------------------|
|--------------------------------------------||--------------------------------------------||-----4"-------------------------------------||----------4"--------7"----5"-------4"-5"-7"-||-7"------------6"------9"----6"-7"----------||--------------------------------------------|
|-------------------------------------||-------------------------------------||-------------------------------------||----------5-5-5-5----------4-4--4----||----------3-3-3-3----------2-2--2----||-00000000---------00000000-----------|
these may be SERIOUSLY wrong: |-----------------------------------||-----------------------------------||-----------------------------------||-5"--------------------------------||----7"-----------------------------||--------------7"----7----7--8--10--|
| ||-----------------------------------||-8"-----------10"------------------||----9"--------------11~--11h12-11~-||-----------------------------------||-----------------------------------||-----------------------------------|
|------------------------------------------||-8"---------------------------------------||----9"-------------11p9-11~----11h12-11~--||---------------9"-------------------------||------------------------------------------||------------------------------------------|
| ||-----------0------------------------------||--------0-----0---------------------------||------------------------------------------||-5"--------------5"-----------------------||----7"--------------7"--------------------||------------------------7~-------7-8-10---|
|-7p3p0-3-7p3p0-3-7p3p0-3-7p3p0-3-2------2--5--||------0-------0-------0-------0---------------||-------------------------------------4--------||----------------------------------------------||----------------------------------------------||----------------------------------------------|
| ||----------------------------------------------||----------------------------------------------||-4"----------------------------------------2"-||----5"-------------------2"--5"--4"-----4"----||-------------------------------------2"-------||----------------------------------------------|
|-7p3p0-3-7p3p0-3-7p3p0-3-7p3p0-3-7--5-3-3-2-0--2---3--||------0-------0-------0-------0-----------------------||------------------------------------------------------||------------------------------------------------------||------------------------------------------------------||------------------------------------------------------|
| ||------------------------------------------------------||------------------------------------------------------||-4"-------------------------------------------------2-||----5"-------------------2"--5"--4"------------4--4---||----------------------------------------2--2-5--------||------------------------------------------------------|
|----------------||----------------||----------------||-4--4----4------||-2--2----2------||----------------|
| ||----------------||-12-12---12-----||----------------||----------------||----------------||----------------|
Tap to rate this tab
 
# A B C D E F G H I J K L M N O P Q R S T U V W X Y Z