Darkane - Choas Vs Order tab

                              Wounded

If you don't know who darkane then you offcially suck and should check them out! but if
you do then...

Band: Darkane
Song: Choas vs Order

I'm glad too see that theres Darkane fans out there... Anyway, this is the complete tab
for Chaos vs Order, enjoy!


Intro:

Guitar IB ||-------------------|---------------------|---------------------|F#||-------------------|---------------------|---------------------|D ||-------------------|---------------------|---------------------|A ||-------------------|---------------------|---------------------|E ||----------------2--|--2--2------------2--|--2--2------------2--|B ||----------------0--|--0--0------------0--|--0--0------------0--|
|---------------------|--------------------|--------------||---------------------|--------------------|--------------||---------------------|--------------------|--------------||---------------------|--------------------|--------------||--2--2------------2--|--2--2--------------|--------------||--0--0------------0--|--0--0--------------|--------------|
Guitar II|------------------|---------------------|---------------------||------------------|---------------------|---------------------||------------------|---------------------|---------------------||------------------|---------------------|---------------------||------------------|--------2--2--2------|--------2--2--2------||------------------|--------0--0--0------|--------0--0--0------|
|---------------------|---------------------|--------------||---------------------|---------------------|--------------||---------------------|---------------------|--------------||---------------------|---------------------|--------------||--------2--2--2------|--------2--2--2------|--------------||--------0--0--0------|--------0--0--0------|--------------|
Riff A Guitar I & II|------------------------|------------------------||------------------------|------------------------||------------------------|-----------------------*|Repeat|------------------------|-----------------------*| 3x|--2--2----2--2--2----2--|--2--2----2--2--2----2--||--0--0----0--0--0----0--|--0--0----0--0--0----0--|
Riff B Guitar I|--------------------------|--------------------------||--------------------------|--------------------------||--------------------------|-------------------------*|Repeat|--------------------5--4--|-------------------------*| 3x|--4--4--------4--4--------|--4--4--3--4--4--4--2--3--||--2--2--1--2--2--2--------|--2--2--------2--2--------|
Guitar II|--------------------------|--------------------------||--------------------------|--------------------------||--------------------------|-------------------------*|Repeat|--------------------------|--3-----------2----------*| 3x|--5--4--3--4--3--4--4--4--|-----4--4--4-----3--4--4--||--------1--2--------2--2--|--------2--2--------2--2--|
Riff C Guitar I & II|------------------------|------------------------||------------------------|------------------------||------------------------|-----------------------*|Repeat|------------------------|-----------------------*| 3x|--2--3--2----3--2--3----|--2--3--2----3--2--3----||--0--1--0----1--0--1----|--0--1--0----1--0--1----|
Riff D Guitar I|------------------------|------------------------||------------------------|------------------------||------------------------|-----------------------*|Repeat|------------------------|-----------------------*| 3x|--2--2--2----2--2--2----|--2--2--2----2--2--2----||--0--0--0----0--0--0----|--0--0--0----0--0--0----|
Guitar II|-----------------------|------------------------||-----------------------|------------------------||-----------------------|-----------------------*|Repeat|-----------------------|-----------------------*| 3x|------2--2--2----2--2--|--2----2--2--2----2--2--||------0--0--0----0--0--|--0----0--0--0----0--0--|
Riff E Guitar I|---------------------------|--------------------------||---------------------------|--------------------------||*----------------9--12--9--|----------6--------------*||*--------------------------|--8----5-----5-----------*|Repeat|---2----3--5--2--7--10-----|----------------3-----1---||---0----1--3--0------------|----------------1--3------|
|--------------------------|-------------------------|----------------------------||--------------------------|-------------------------|----------------------------||----------------9--12--9--|-------------------------|---------------9--12--11----||--------------------------|--11--------11--9--7-----|--------9--10---------------||--2----3--5--2--7--10-----|----------------------7--|--10------------------------||--0----1--3--0------------|-------------------------|----------------------------|
|--------------------------|-------------------------|--------------------------||--------------------------|-------------------------|--------------------------||----------------9--12--9--|----------6--------------|--------------------------||--------------------------|--8----5-----5-----------|-----------------------9--||--2----3--5--2--7--10-----|----------------3-----1--|--2----3--5--2--7--10-----||--0----1--3--0------------|----------------1--3-----|--0----1--3--0------------|
|-------------------------|----------------------------||-------------------------|----------------------------||-------------------------|---------------9--12--11----||--11--------11--9--7-----|--------9--10---------------||----------------------7--|--10------------------------||-------------------------|----------------------------|
Guitar II|---------------------------|--------------------------||---------------------------|--------------------------||*----------------9--12-----|-------------------------*||*-----------------------9--|--5-------2--------------*|Repeat|---2----3--5--2--7--10-----|-------1-----1--3-----4---||---0----1--3--0------------|----------------1--3------|
|--------------------------|------------------------|----------------------||--------------------------|------------------------|----------------------||----------------9--12-----|----------------8--9----|--9--------------8----||-----------------------9--|--7----------7----------|-----------10---------||--2----3--5--2--7--10-----|-------2--2-------------|----------------------||--0----1--3--0------------|--5----0--0--5----------|----------------------|
|--------------------------|-------------------------|--------------------------||--------------------------|-------------------------|--------------------------||----------------9--12-----|-------------------------|----------------9--12-----||-----------------------9--|--5-------2--------------|-----------------------9--||--2----3--5--2--7--10-----|-------1-----1--3-----4--|--2----3--5--2--7--10-----||--0----1--3--0------------|----------------1--3-----|--0----1--3--0------------|
------------------------|----------------------|------------------------|----------------------|----------------8--9----|--9--------------8----|--7----------7----------|-----------10---------|-------2--2-------------|----------------------|--5----0--0--5----------|----------------------|
Riff F Guitar I|------------------------------|--------------------------||------------------------------|--------------------------||---9-----10--------13-----14--|--------------------------||---9-----10--------13-----14--|--------------------------||---7-----8---2--2--11-----12--|--2--2--2--7-----8--7-----||---7--0--8---0--0--11--0--12--|--0--0--0-----0--------7--|
|-----------------------------|---------------------------||-----------------------------|---------------------------||--9-----10--------13-----14--|---------------------------||--9-----10--------13-----14--|-----5---------------------||--7-----8---2--2--11-----12--|-----5--------0-0-0--0--0--||--7--0--8---0--0--11--0--12--|--3-----3--1--1-1-1--1--1--|
|-----------------------------|--------------------------||-----------------------------|--------------------------||--9-----10--------13-----14--|--------------------------||--9-----10--------13-----14--|--------------------------||--7-----8---2--2--11-----12--|--2--2--2--7-----8--7-----||--7--0--8---0--0--11--0--12--|--0--0--0-----0--------7--|
|-----------------------------|-------------------------||-----------------------------|-------------------------||--9-----10--------13-----14--|-----------5------------*||--9-----10--------13-----14--|----------------4--3----*|Repeat|--7-----8---2--2--11-----12--|-----2--3----------------||--7--0--8---0--0--11--0--12--|--0----------------------|
Guitar II|------------------------------|--------------------------||------------------------------|--------------------------||*--9-----10--------13-----14--|--------------------------||*--9-----10--------13-----14--|-----------6-----7--6-----||---7-----8---2--2--11-----12--|--2--2--2--------------7--||---7--0--8---0--0--11--0--12--|--0--0--0-----0-----------|
|-----------------------------|---------------------------||-----------------------------|---------------------------||--9-----10--------13-----14--|---------------------------||--9-----10--------13-----14--|-----5---------------------||--7-----8---2--2--11-----12--|-----5--------0-0-0--0--0--||--7--0--8---0--0--11--0--12--|--3-----3--1--1-1-1--1--1--|
|-----------------------------|--------------------------||-----------------------------|--------------------------||--9-----10--------13-----14--|--------------------------||--9-----10--------13-----14--|-----------6-----7--6-----||--7-----8---2--2--11-----12--|--2--2--2--------------7--||--7--0--8---0--0--11--0--12--|--0--0--0-----0-----------|
|-----------------------------|-------------------------||-----------------------------|-------------------------||--9-----10--------13-----14--|-----------9------------*||--9-----10--------13-----14--|----------------9--8----*|Repeat|--7-----8---2--2--11-----12--|-----6--7----------------||--7--0--8---0--0--11--0--12--|--0----------------------|
Riff G Guitar I|-----------------------|---------------------|-----------------------||-----------------------|---------------------|-----------------------||-----------------------|---------------------|-----------------------||-----------------4--3--|---------------------|-----------------------||--2--------2--2--2--1--|----------2--2----5--|--4--------4--4--7--5--||--0--------0--0--------|----------0--0----3--|--2--------2--2--5--3--|
|----------------------|----------------------|--------------------||----------------------|----------------------|--------------------||----------------------|----------------------|--------------------||----------------------|-------------------7--|----------7----7----||----------5--2--4--5--|--2--------2--5-------|--------------------||----------3--0--2--3--|--0--------0--3----5--|----------5----5----|
|--------------------|-------------------------||------------------------||--------------------|-------------------------||------------------------||--------------------|-------------------------||*-----------------------||--9--------------5--|----5--------4-----------||*-----------------4--3--||-----------------3--|----3--2--2--2--5--4--5--||---2--------2--2--2--1--||--7-----------------|-------0--0-----3--2--3--||---0--------0--0--------|
|---------------------|-----------------------|----------------------||---------------------|-----------------------|----------------------||---------------------|-----------------------|----------------------||---------------------|--------------------5--|----------------------||----------2--2----5--|--4--------4--4--7--3--|----------5--2--4--5--||----------0--0----3--|--2--------2--2--5--3--|----------3--0--2--3--|
|----------------------|--------------------|--------------------||----------------------|--------------------|--------------------||----------------------|--------------------|--------------------||-------------------7--|----------7----7----|--9--------------5--||--2--------2--5-------|--------------------|-----------------3--||--0--------0--3----5--|----------5----5----|--7-----------------|
|--------------------------||--------------------------||-------------------------*|Repeat from the|----5--------4-----------*|second half of|----3--2--2--2--5--4--5---|the riff|-------0--0-----3--2--3---|
Guitar II|-----------------------|---------------------|-----------------------||-----------------------|---------------------|-----------------------||-----------------------|---------------------|-----------------------||-----------------4--3--|---------------------|-----------------------||--2--------2--2--2--1--|----------2--2----5--|--4--------4--4--7--5--||--0--------0--0--------|----------0--0----3--|--2--------2--2--5--3--|
|----------------------|----------------------|--------------------||----------------------|----------------------|--------------------||----------------------|----------------------|--------------------||----------------------|----------------------|--------------------||----------5--2--4--5--|--2--------2--5----3--|----------8----7----||----------3--0--2--3--|--0--------0--3----1--|--------------------|
|---------------------|-------------------------||------------------------||---------------------|-------------------------||------------------------||---------------------|-------------------------||*-----------------------||------------------5--|----5--------4-----------||*-----------------4--3--||--6---------------3--|----3--2--2--2--5--4--5--||---2--------2--2--2--1--||-----------7---------|-------0--0-----3--2--3--||---0--------0--0--------|
|---------------------|-----------------------|----------------------||---------------------|-----------------------|----------------------||---------------------|-----------------------|----------------------||---------------------|--------------------5--|----------------------||----------2--2----5--|--4--------4--4--7--3--|----------5--2--4--5--||----------0--0----3--|--2--------2--2--5--3--|----------3--0--2--3--|
|----------------------|--------------------|---------------------||----------------------|--------------------|---------------------||----------------------|--------------------|---------------------||----------------------|--------------------|------------------5--||--2--------2--5----3--|----------8----7----|--6---------------3--||--0--------0--3----1--|--------------------|-----------7---------|
|--------------------------||--------------------------||-------------------------*|Repeat from the|----5--------4-----------*|second half of|----3--2--2--2--5--4--5---|the riff|-------0--0-----3--2--3---|
After 8 bars of Riff G guitar III starts to play...
Guitar III|---------------------|------------------|---------------------||---------------------|------------------|---------------------||*--9--------------9--|------------------|--9------------8--9--||*--------------------|------------------|---------------------||---7--------------7--|------------------|--7------------6--7--||---------------------|------------------|---------------------|
|------------------|---------------------|------------------------||------------------|---------------------|------------------------||------------------|--9--------------10--|----------10--12--14----||------------------|---------------------|------------------------||------------------|--7--------------8---|----------8---10--12----||------------------|---------------------|------------------------|
|--------------------------|-------------------||--------------------------|-------------------||--16--------16--17----16--|------------------*||--------------------------|------------------*|Repeat|--14--------14--15----14--|-------------------||--------------------------|-------------------|
After 16 bars of Riff G guitar IV starts to play...
Guitar IV|----------------------|------------------|-----------------------||--12--------------11--|------------------|--10------------10--8--||----------------------|------------------|-----------------------||--9---------------8---|------------------|--7-------------7---5--||----------------------|------------------|-----------------------||----------------------|------------------|-----------------------|
|------------------|---------------------|----------------------||------------------|--8--------------13--|----------------------||------------------|---------------------|----------------------||------------------|--5--------------10--|----------7--9--10----||------------------|---------------------|----------------------||------------------|---------------------|----------------------|
|----------------------|-------------------||------------------10--|----------7--------||--11------------------|-------------------||----------------------|-------------------||--9-------------------|-------------------||----------------------|-------------------|
Riff F Riff E Riff G (Guitar I & II only plays the second half of the riff and repeats it 3 times. Guitar III starts to play immediately. Guitar IV starts to play after 8 bars and for the rest of Riff G). The Solo starts after 16 bars of Riff G
Lead Guitar|--17b-------17r---15--18~-|----------------14--||--------------------------|--------------------||--------------------------|--------------------||--------------------------|--------------------||--------------------------|--------------------||--------------------------|--------------------|
|--14b---14--12--12/-10--10--12--|----10-12-10----------------------------||--------------------------------|-------------12--10-12-10-8--10-8-------||--------------------------------|----------------------------------9--7--||--------------------------------|----------------------------------------||--------------------------------|----------------------------------------||--------------------------------|----------------------------------------|
|-----------------------------------|----------------------||-----------------------------16-17-|--18~-------17~-------||--9-----------------14-16-17-------|----------------------||-----------14-16-17----------------|----------------------||-----------------------------------|----------------------||-----------------------------------|----------------------|
|------------------------|-----------------------------||--16~-------12------13--|----12--10--13--12-----------||------------------------|-----------------------------||------------------------|----------------------9--10--||------------------------|-----------------------------||------------------------|-----------------------------|
|----------------------------|--------------------------||----------------------------|--------------------------||--11--------11--12--14--11--|----------11--------------||----------------------------|--------------14--10------||----------------------------|----------------------10--||----------------------------|--------------------------|
|-------------------------|----------------------------||-------------------------|----------------------------||-------------------------|----------------------------||----------------------9--|----10--9-10-9-----9--------||--9--------9--10--12-----|---------------12-----------||-------------------------|----------------------------|
|--17-12----12----------12-17-12----12----------12-||--------15----15-12-15----------15----15-12-15----||--------------------------------------------------||--------------------------------------------------||--------------------------------------------------||--------------------------------------------------|
|--17-13----13----------13-20-17----17-------------||--------17----17-13-17----------20----20-18-17----||-----------------------------------------------19-||--------------------------------------------------||--------------------------------------------------||--------------------------------------------------|
|------------------------------------------|--------------------------||--------------------------16--17~-----16~-|----13--12--10--12~-------||--------------14--16--17------------------|--------------------------||--13--14--16------------------------------|--------------------------||------------------------------------------|--------------------------||------------------------------------------|--------------------------|
On the last two bars Guitar V and VI plays...
|----------------15------14--|----12--11--8--11--------||----------------------------|-------------------------||----------------------------|-------------------------||----------------------------|-------------------------||----------------------------|-------------------------||----------------------------|-------------------------|
Guitar V|----------------20------19--|----15--14--12--14--------||----------------------------|--------------------------||----------------------------|--------------------------||----------------------------|--------------------------||----------------------------|--------------------------||----------------------------|--------------------------|
Guitar VI|----------------15------14--|----12--11--8--11--------||----------------------------|-------------------------||----------------------------|-------------------------||----------------------------|-------------------------||----------------------------|-------------------------||----------------------------|-------------------------|
Tap to rate this tab
 
# A B C D E F G H I J K L M N O P Q R S T U V W X Y Z