Darkest Hour – Paradox With The Flies tab

Darkest Hour 
A Paradox with flies
From the album "Deliver us" 

Tuning is Drop C. 
I think also, for the intro they only have each player play 1 part on the g
string another on the a, but i think this sounds cooler. Either way, you can do what you want.


A little bit of chorus flange and medium delay for the intro.

(0:00-0:23)|---------------------------------------||---------------------------------------||--10---10---10---10---10---10---12---12||---------------------------------------||8----8----8----8----8----8----8----8---||---------------------------------------|pm pm pm pm pm pm pm pm
|-------------------------------------------||-------------------------------------------||--9----9----9----9----9----9---------7-7---||-------------------------------------------||7----7----7----7----7----7----7--0---------||-------------------------------------------|pm pm pm pm pm pm pm Plays this once in the intro^
Then it plays this
|-------------------------------------------||-------------------------------------------||--9----9----9----9----9----9--------7-h9-7-||-------------------------------------------||7----7----7----7----7----7----7--0---------||-------------------------------------------|
Then that little like wammy bar open for the verse. (0:27-0:54) Just figure out how many times you strum heres how to do it.
|----------------------------------------------------||----------------------------------------------------||10-10-10-10-10-12-12--9-9-9-9--7-7-7-7--5-5-5-5-----||----------------------------------------------------||8--8--8--8--8--8--8---7-7-7-7--7-5-5-5--3-3-3-3-----||----------------------------------------------------|
(0:55-1:09)|-------------------------||-------------------------||-------------------------||-------0-h2--------------|2 times|-0-2-3-------3-2-0-h2-h3-||-------------------------|
|---------------------------------------||---------------------------------------||---------------------------------------||0-2-3-3-2-0-2-0-2-3-0-2-3-5-3-2-3-0-2-3||---------------------------------------||---------------------------------------|
(1:10-1:22)|------------------------------||------------------------------||----2-----4-----5-------5-4---||2-3---2-3---2-3---2-3-5------5|2 times|------------------------------||------------------------------|
Second time
|---------------------------------||---------------------------------||----2-----4-----5-//9-10---------||2-3---2-3---2-3------------------||---------------------------------||--------------------------10-9-3-|
(1:23-1:39) "In your eyes i so see much more"|--------------------------------------------||--------------------------------------------||10---10---10---10-----12-----12----12----12-||--------------------------------------------||---8----8----8---8--10----10----10---10-----||--------------------------------------------| pm pm pm pm pm pm pm pm
|--------------------------------------||--------------------------------------||9---9---9---9---7---7---7---7---7-5-4-||--------------------------------------||--7---7---7---7---5---5---5---5-------||--------------------------------------| pm pm pm pm pm pm pm pm pm
(1:40-1:53)|------------------------------||------------------------------||----2-----4-----5-------5-4---||2-3---2-3---2-3---2-3-5------5||------------------------------||------------------------------|
PM PM|--------------------------------------------------||------3-h5-3-0-h1--5-5-6-5-3--5-5-8-5-3h5-3h5-3h5-||2-4-5---------------------------------------------||--------------------------------------------------||--------------------------------------------------||--------------------------------------------------|
(1:54-2:08)
|-------------------------||-------------------------||-------------------------|2 times|-------0-h2--------------||-0-2-3-------3-2-0-h2-h3-||-------------------------|
|---------------------------------------||---------------------------------------||---------------------------------------||0-2-3-3-2-0-2-0-2-3-0-2-3-5-3-2-3-0-2-3||---------------------------------------||---------------------------------------|
(2:09-2:23) "In your eyes I see so much more"|--------------------------------------------||--------------------------------------------||10---10---10---10-----12-----12----12----12-||--------------------------------------------||---8----8----8---8--10----10----10---10-----||--------------------------------------------| pm pm pm pm pm pm pm pm
|--------------------------------------||--------------------------------------||9---9---9---9---7---7---7---7---7-5-4-|Plays once,and then only the top part|--------------------------------------||--7---7---7---7---5---5---5---5-------||--------------------------------------|
|--------------------------||--------------------------||10-9~-9b-h7-h5-h7-h5------||----------------------5---||--------------------------||--------------------------|
(2:24-2:37)|---------------------------------------------------------||---------------------------------------------------------||---------------------------------------------------------||10-------9--------7---10--10-------9--------10--9--5-5-5-||---8-8-8---8-8-8--8----8-----7-7-7----7-7-7-----7--7-7-7-||---------------------------------------------------------|
Just figure out how many times you need to do each one..i'm lazy
(2:38-2:44)|---------------------------||---------------------------||---------------------------||7-7-7-7-7-7-7-7-10-5-5-5-5-||8-8-8-8-7-7-7-7--7-7-7-7-7-||---------------------------|
Solo (2:45-2:52) about 4-5 times each sweep.|8--5-------5--8---12--8---------8--12--19--15----------15--19-----------||-----6---6--------------10---10---------------17----17--------15-17-18~~||-------5-------------------9---------------------16---------------------||------------------------------------------------------------------------||------------------------------------------------------------------------||----------(4-5xs)-------------------------------------------------------|
(2:53-3:08)|----------------------------------------------||----------------------------------------------||----------------9-10-9-7----------------------||10-10-10-10-12------------7-7-7-7-10--5-5-5-5-||-8--8--8--8--8------------7-7-7-7--7--7-7-7-7-||----------------------------------------------| pm pm pm pm
|--------------------------------------------------------------||--------------------------------------------------------------||------------------9---10---9--ph7!----------------------------||10-10-10-10-10--7---7----7---------10-10-10-10-9-10-5-5-5-5-5-||-8--8--8--8--8----------------------8--8--8--8-8--8-7-7-7-7-7-||--------------------------------------------------------------| pm pm
(3:09-3:36) low at first then gets louder.|----------------------------------------------------||----------------------------------------------------||10-10-10-10-10-12-12--9-9-9-9--7-7-7-7--5-5-5-5-----||----------------------------------------------------||8--8--8--8--8--8--8---7-7-7-7--7-5-5-5--3-3-3-3-----||----------------------------------------------------|
(3:37-3:45)
"In your eyes I see so much more"|--------------------------------------------||--------------------------------------------||10---10---10---10-----12-----12----12----12-||--------------------------------------------||---8----8----8---8--10----10----10---10-----||--------------------------------------------| pm pm pm pm pm pm pm pm
|--------------------------------------||--------------------------------------||9---9---9---9---7---7---7---7---7-5-4-|Plays once,and then only the top part|--------------------------------------||--7---7---7---7---5---5---5---5-------||--------------------------------------|
|--------------------------||--------------------------||10-9~-9b-h7-h5-h7-h5------||----------------------5---||--------------------------||--------------------------|
(3:46-4:05)|----------------||----------------||--5---7---5---4-||5---5---5---5---||----------------||----------------|repeats 8 times
|-----------------||-----------------||--------4-----5~-||10--2-3---2-3----||-8---------------||-----------------|
Well there you have it, my favorite song by Darkest Hour and it's probably the only tab out there because i've looked at a lot of websites and none of them have it so i figured that I would tab it since it is such a great song. Cheers.
Please rate this tab:
x1.0