Darkest Hour – An Ethereal Drain tab ver. 3

------------/7-6-4--------/16-14-----------------------|----------------------------------17-16----------------|-------------------------------------------------------|--9--8------------------------------------------13-14--|--------7---------------------------------14-16--------|-------------------------------------------------------|
--------------------------------------------19----------------|-16-14--------------------------------14-17----17-14----------|--------16-15-------------------15-16----------------16-15----|---------------------11-13---14----------------------------14-|---------------13-14------------------------------------------|--------------------------------------------------------------|
-------------12-18-21-18-12-------------------------------|----------14----------------14----------------------------|----15-16----------------------15-------------------------|-14-------------------------------------------------------|----------------------------------------------------------|----------------------------------------------------------|
-----------------------------------------------------|--------------------------11-12----------------------|-------8-9-8--------8-9------------------------------|---8-9--------9-6-9----------------------------------|-7---------------------------------------------------|-----------------------------------------------------|
-18-16-14----------16-14------------------------------------|----------17-16-14-------17-16-14---------------------------|------------------------------------------------------------|-------------------------------------------13-14-16---------|----------------------------------13-14-16------------------|------------------------------------------------------------|
-----------------------------------------------------|---------14-16-17-----16/11/12/9/16/11/12/7---5------|13-15-16---------------------------------------------|-----------------------------------------------------|-----------------------------------------------------|-----------------------------------------------------|
---------------------------11-12-14-16-12-11----11-12-14-16-|------------------------12-------------------12-------------|-------8-9-8----8----13-------------------------------------|-----9-------11---------------------------------------------|--11--------------------------------------------------------|------------------------------------------------------------|
-16-12-14-11----9-7-6---------12--11b.5--7-----------|----------------------9-7-5-----------------5--------|-----------------------------------------------------|-----------------------------------------------------|-----------------------------------------------------|-----------------------------------------------------|
------------7-11-7------------------------9-14------------------|----------9--------9-------------------11------11---------------|--------8------------8--------------11------------11------------|------9----------------9---------11------------------11---------|-6-11--------------------11-9-13------------------------13------|----------------------------------------------------------------|
----------------16-19-16----------16-18----------------19-|-------------17----------17----17-------19----------19----|----------16----------------16-------------18----18-------|-------18-------------------------------------20----------|-14-19----------------------------------------------------|----------------------------------------------------------|
----------------------------------------------------------|-19----------19-------------------------------------------|----18----18----------------------------------------------|-------21-------------------------------------------------|----------------------------------------------------------|----------------------------------------------------------|
Please rate this tab:
x1.0