Darkest Hour – Sound The Surrender tab

----------------------------------------------------------------------------
                                 Darkest Hour
                              Sound the surrender              Drop C
----------------------------------------------------------------------------

 
|-----------------------------------|------------------------------------||-----------------------------------|------------------------------------||-----------------------------------|------------------------------------||--------------------------5--------|----------------------5-5---7-7-----||5-----8---7-8-7-----5-7-8---8-7----|------12---10-12-10---3-3-x-4-4-x---||----0---0-------0-0-------------10-|-8--8----8----------8---------------|X4
|-----------|-----------------------------------|------------------------||-----------|-----------------------------------|------------------------||-----------|-----------------------------------|------------------------||-10--10-10-|--------------------------5--------|----------------5-5x7-7-||-8---8--7--|-5----8---7-8-7-----5-7-8---8-7----|---12-10-10-12--3-3x4-4-||-----------|----0---0-------0-0-------------10-|8-8--8--------8---------|X4
|------------|------------------------|------------------------||------------|------------------------|------------------------||------------|------------------------|------------------------||--10--10-10-|2-2-2-2-2-2-3-3-3-3-0-0-|3-3-3-3-3-3-5-5-5-5-7-7-||--8---8--7--|------------------------|------------------------||------------|------------------------|------------------------|
|--------------------------|-----------------------------||--------------------------|-----------------------------||7-7-7-7-7-7-9-9-9-9-10-10-|9-10-10-10-10-10-9-9-9-9-9-9-||--------------------------|-----------------------------||--------------------------|-----------------------------|X2|--------------------------|-----------------------------|
|------------------------|------------------------|------------------------||------------6-6---------|------------6-6---------|------------6-6---------||----9-9---------9-9-----|----9-9---------9-9-----|----9-9---------9-9-----||0-0-----0-0---------0-0-|------------------------|8-8-----8-8---------8-8-||------------------------|8-8-----8-8---------8-8-|------------------------||------------------------|------------------------|------------------------|
|------------------------------| |------------8-8---------------| |------10-10-----9-9-----------| |10-10---------------10-10-7-7-| |------------------------------||------------------------------| X2
|----------------------|------------------------------------||----------------------|------------------------------------||----------------------|------------------------------------||----------------------|5-------7-8-5-----------------------||----------------------|--8-7-5-----------------------------||0-0-0-0-0-0-0-0-0-0-0-|--------------0-0-0-0-0-0-0-0-0-0-0-|
|-----------------------------|------------------------------------||-----------------------------|------------------------------------||-----------------------------|------------------------------------||5-------7-8-5----------------|5-------7-8-5-----------------------||--8-7-5----------------------|--8-7-5-----------------------------||-------3-3-3-3-3-3-3-3-3-3-3-|--------------8-8-8-8-8-8-8-8-8-8-8-|
|------------------------------------||------------------------------------||------------------------------------||------7-----8------7--------5-------||------8----10------8--------7-------||-8-10---10------10----10-10------10-|
|--------------------------------------|-----------------------------------||--------------------------------------|-----------------------------------||--------------------------------------|-----------------------------------||5-------7-8-5-------------------------|5-------7-8-5----------------------||--8-7-5-------------------------------|--8-7-5----------------------------||--------------0-0-0-0-0-0-0-0-0-0-0-0-|-------------3-3-3-3-3-3-3-3-3-3-3-|
|------------------------------------| |------------------------------------| |------------------------------------| |5-------7-8-5-----------------------| |--8-7-5-----------------------------| |--------------8-8-8-8-8-8-8-8-8-8-8-|
|-----------------------------------------------------||-----------------------------------------------------||-----------------------------------------------------||-----------------------------------------------------||10-12-10---8-10-8---7-8-7--10-12-10---8-10-8---7-8-7-||---------0--------0-----------------0--------0-------|
|-----------|------------|-------------|----------||-----------|------------|-------------|----------||-----------|------------|-7-----9--10-|-10-----9-||-2---3---0-|3------5--7-|-------------|----------||-----------|------------|-------------|----------||-----------|------------|-------------|----------|
|------------------------|------------------------|------------------------||------------6-6---------|------------6-6---------|------------6-6---------||----9-9---------9-9-----|----9-9---------9-9-----|----9-9---------9-9-----||0-0-----0-0---------0-0-|------------------------|8-8-----8-8---------8-8-||------------------------|8-8-----8-8---------8-8-|------------------------||------------------------|------------------------|------------------------|
|------------------------------||------------8-8---------------||------10-10-----9-9-----------||10-10---------------10-10-7-7-||------------------------------||------------------------------|
|-----------------|---------------|------------|-----------||-----------------|---------------|------------|-----------||-----------------|---------------|------------|-----------||----------7-7-7--|---------------|------------|-----------||-0-0-0-0--5-5-5--|-5-7-8/12-10-8-|-5--------8-|-7---------||-0-0-0-0---------|---------------|------------|-----------|
|----------------|------------------------|------------|-----------||----------------|------------------------|------------|-----------||----------------|------------------------|------------|-----------||----------7-7-7-|-------------7--10--10--|------------|-----------||-0-0-0-0--5-5-5-|-------------5--8----7--|-8--------8-|-10--------||-0-0-0-0--------|-0-0-0-0-0-0------------|-8--------8-|-10--------|
|----------------|----------------------|-----------------|-------------||----------------|----------------------|-----------------|-------------||----------------|----------------------|-----------------|-------------||----------7-7-7-|-------------7--10-10-|-----------------|-------------||-0-0-0-0--5-5-5-|-------------5--8--7--|-5-------------8-|-7-----------||-0-0-0-0--------|-0-0-0-0-0-0----------|-8---------------|-10----------|
|----------------|------------------|-------------|-----------||----------------|------------------|-------------|-----------||----------------|------------------|-------------|-----------||----------------|------------------|-------------|-----------||---------5-5-5--|-8-10-12/15-13-12-|-8--------12-|--10-------||-0-0-0-0--------|------------------|-------------|-----------|
|----------------|---------------|------------------------------------||----------------|---------------|------------------------------------||----------------|---------------|-----------12--------------12-14-15-||---------7-7-7--|---------7-7-7-|---12-14-15--15-14-12-14-15---------||-0-0-0-0-5-5-5--|-0-0-0-0-5-5-5-|-0----------------------------------||-0-0-0-0--------|-0-0-0-0-------|-0----------------------------------|
|-----------|---12-9----------9-15-12----------12-||-----------|--------11----11---------14----14----||-15-----14-|-----------12---------------15-------||-----------|-------------------------------------||-----------|-0-----------------------------------||-----------|-0-----------------------------------|
|-------------------------------------------|--------------------------|-------------------------------------------|--------------------------|-------------------------------------------|--------------------------|-------------------------------------------|--------------------------|-0--------------------5--------------------|-0-------------------5----|-0--0-0-0-0-0-0-0-0-0-8--8-8-8-8-8-8-8-8-8-|-0-0-0-0-0-0-0-0-0-0-8----
END ON THIS-------------------| |-------------------------------------------|-------------------| |-------------------------------------------|-------------------| |-------------------------------------------|-------------------| |-------------------------------------------|-------------------| X4 |-1-------------------4---------------------|-8-8-8-8-8-8-8-8-8-| |-5-5-5-5-5-5-5-5-5-5-7---7-7-7-7-7-7-7-7-7-|
DO THE SAME THING AGAIN BUT ON THE 4TH TIME END ON THIS:|-----------------------||-----------------------||-----------------------||-----------------------||-1-------------------4-||-5-5-5-5-5-5-5-5-5-5-7-|
DO THIS 4 TIMES|-------------------------------------|-----------------------------------||-------------------------------------|-----------------------------------||-------------------------------------|-----------------------------------||----------------------------5--------|-----------------------5-5---7-7---||-5----8----7-8-7-----5-7-8----8-7----|-------12---10-12-10---3-3-x-4-4---||----0----0-------0-0--------------10-|-8---8----8----------8-------------|
|----------------------|-------------------------|-----------------------||-----------6-6--------|-------------6-6---------|----------6-6----------||----9-9-------9-9-----|-----9-9---------9-9-----|----9-9------9-9-------||-0-0----0-0-------0-0-|---------------------8-8-|-8-8---8-8------8-8----||----------------------|-8-8-----8-8-------------|-----------------------||----------------------|-------------------------|-----------------------|
|-----------------------------||-----------8-8---------------||------10-10----9-9-----------||10-10--------------10-10-7-7-||-----------------------------||-----------------------------|
DO THIS 2 TIMES|---------------|---------------|------------|-----------|---------|------||---------------|---------------|------------|-----------|---------|------||---------------|---------------|------------|-----------|7---9-10-|-9--9-||---------7-7-7-|---------7-7-7-|-2------3-0-|-3----5--7-|---------|------||-0-0-0-0-5-5-5-|-0-0-0-0-5-5-5-|------------|-----------|---------|------||-0-0-0-0-------|-0-0-0-0-------|------------|-----------|---------|------|
|-------------------|-----------------------|----------------------||---------6-6-------|-----------6-6---------|----------6-6---------||---9-9------9-9----|---9-9---------9-9-----|---9-9--------9-9-----||0-0---0-0------0-0-|-----------------------|8-8----8-8--------8-8-||-------------------|8-8----8-8---------8-8-|----------------------||-------------------|-----------------------|----------------------|
|------------------------------||------------8-8---------------||------10-10-----9-9-----------||10-10---------------10-10-7-7-||------------------------------||------------------------------|
|-----------------------------------------------------------------|-----||---------------------------------------------------------10-9--7-|-----||---------------------------------------------------------10-8--7-|-----||---------7-7-7----------7-7-7---------7-7-7--------------12-10-8-|-7---||-0-0-0-0-5-5-5--0-0-0-0-5-5-5-0-0-0-0-5-5-5---5---7---8----------|-5---||-0-0-0-0--------0-0-0-0-------0-0-0-0----------------------------|-0---|
Please rate this tab:
x1.0