Darkthrone – Black Mountain Totem tab

 Artist		: Darkthrone
 Song		: Black Mountain Totem
 Album		: Circle The Wagons
 Transcribed by	: Fantom (http://w3.quake3.jp/fantom/)
 Last Update	: 13 Jun 2010

standard tuning

0:00/0:40|-----------------------------------------------------------------------||-----------------------------------------------------------------------||-----------------------------9-6---------------------------------------||-------------------------9-6---------------------------9------9/7------||-7-6---6-6-6-6-6-6-6-9-6---------7-6-6(6)6-7-6-6(6)6-6-6------6/4------||-5-4---4-4-4-4-4-4-4-------------5-4-4(4)4-5-4-4(4)4-4-7-7777-7/5-5555-|
.... ....0:26|---------------------------||---------------------------||---------------------------||---------------------------||-5---3---5-----------------||-3---1---3-0-1-3-3b4r3-1-0-|
. . . . .1:06|---------------------------||---------------------------||---------------------------||---------------------------||-5---3---5-----------------||-3---1---3-0-1-3-3b4r3-1-0-| . . . . .
|---------------------------||---------------------------||---------------------------||---------5------5-6-5-6----||-5---3---3-3333-3-4-3-4----||-3---1---------------------| ....
|---------------------------||---------------------------||---------------------------||---------------------------||-5---3---5-----------------||-3---1---3-0-1-3-3b4r3-1-0-| . . . . .
|----------------||----------------||---------3"2"/5-||---------1"1"/3-||-5---3----------||-3---1----------|
1:33/2:53|--------------------------------------------------------------------||--------------------------------------------------------------------||--------------------------------------------------------------------||--10-----10---10---9------------------------------------------------||--0--00000--000--000-009-9-9-9-9-9-7-10--10--10-10-10-7-------------||-----------------------7-7-7-7-7-7-5-8---8---8--8--8--5-4t5-3t4-2t3-| .... .. .. ..
|-----------------------------------------------------------------------||-----------------------------------------------------------------------||-----------------------------------------------------------------------||--10-----10---10---9---------------------------------------------------||--0--00000--000--000-009-9-9-9-9-9-7-10--10--10-10-10/14-13-13-8t9-7t8-||-----------------------7-7-7-7-7-7-5-8---8---8--8--8-/12-11-11---------| .... .. .. ..
2:13/3:33|-------------------------------------------------------------------||-------------------------------------------------------------------||-------------------------------------------------------------------||-------------------------------12-----------------------7-9b10r9-7-||-9-------9-----10--------9-----10--------(2)--------7-9------------||-7---7-7-7-77778---7-7-7-7-7777-----0-0-0-0-0-0-0-0----------------| . . .... . . . .... . . .
|----------------------------------------------------------------||----------------------------------------------------------------||----------------------------------------------------------------||-------------------------------12-------------------------------||-9-------9-----10--------9-----10-------------------------------||-7---7-7-7-77778---7-7-7-7-7777-----0-0-0-0-0-0-0-0-0-1-3-4-3-1-| . . .... . . . .... . . . . . . . .
4:12|------------------------------------------------------------------------||------------------------------------------------------------------------||------------------------------------------------------------------------||-----------------------------------------------------------1010/9/10-10-||-00003-002-0-----77777//---3---2---00003-002-0-----888/7-7-8-8-/7/8--8--||-------------4---55555//-001-000---------------4---666/5-5--------------| .. ..4:35(solo)
Some artificial harmonics here, listen carefully.|------------------------------------------------||------------------------------------------------||----------------------------------7--9--9b--7b--||-7-7-7-7-10-7-7-9-7-9b--7-----------------------||--------------------------10-7------------------||-------------------------------10---------------|
|---------------------------------------------||----------------------------------------10b--||------------------------7-7-7-7-12-9-12------||-7-7-7-7-10-7-7-9-7-9b-----------------------||---------------------------------------------||---------------------------------------------|
|---------------------------------------------------||---------------------------------------------------||-------------------------------------------9b--7b--||-7-7-7-7-10-7-7-9-7-9b--7--------------7-9---------||--------------------------10-7----7-10-------------||-------------------------------10------------------| . . . .
|--------------------------------------------------------------------||--------------------------------------------------------------------||------------------------7-7-7-7-9-7-9-7-10-8-11-9-12-10--13-11-14~--||-7-7-7-7-10-7-7-9-7-9b----------------------------------------------||--------------------------------------------------------------------||--------------------------------------------------------------------|
|---------------------------------------------------------------||---------------------------------------------------------------||-12-14-14~--12--14--16-16-16-16-16-14-16-16~--12"-14"-12"------||----------------------------------------------------------14"--||---------------------------------------------------------------||---------------------------------------------------------------|
Something like that!|-------------------------------------------------------------------------||-------------------------------------------------12-14-13-15-14-16-15-17-||-------------------------12-14-13-15-14-16-15-17-------------------------||-12-14-13-15-14-16-15-17-------------------------------------------------||-------------------------------------------------------------------------||-------------------------------------------------------------------------|
|-/20~-19~-17~------------/20~-19~-17~-----17~--||--------------20~-17~-----------------20~------||-----------------------------------------------||-----------------------------------------------||-----------------------------------------------||-----------------------------------------------|
Fade out...|-0-0-0-0-8-0-0-7-0-0-5-0-7-0-5-0-3-0-0-5-0-0-3-0-3-0-2-3-0-2-3-0-||-----------------------------------------------------------------||-----------------------------------------------------------------||-----------------------------------------------------------------||-----------------------------------------------------------------||-----------------------------------------------------------------|
|-8-0-0-7-0-0-5-0-7-0-0-5-0-0-7-0-3-0-0-5-0-0-3-0-3-0-2-3-0-2-3-0-||-----------------------------------------------------------------||-----------------------------------------------------------------||-----------------------------------------------------------------||-----------------------------------------------------------------||-----------------------------------------------------------------|
|-8-0-0-7-0-0-5-0-7-0-0-5-0-0-3-0-5-0-0-3-0-0-2-0-3-0-2-3-0-2-3-0-||-----------------------------------------------------------------||-----------------------------------------------------------------||-----------------------------------------------------------------||-----------------------------------------------------------------||-----------------------------------------------------------------|
|-8-0-0-7-0-0-5-0-7-0-0-5-0-0-7-0-3-0-0-5-0-0-3-0-3-0-2/5~-||----------------------------------------------------------||----------------------------------------------------------||----------------------------------------------------------||----------------------------------------------------------||----------------------------------------------------------|
Please rate this tab:
x1.0