Darwin Deez - Radar Detector tab

Radar Detector                                  


guitar 1
                                                                   
E||-------------------------------|-------------------------------|B||--9------------------------9---|--9------------------------9---|G||--9------------------------9---|--9------------------------9---|D||--9------------------------9---|--9------------------------9---|A||--7--x-x-x-x-x-x-x-x-x-x-x-7---|--7--x-x-x-x-x-x-x-x-x-x-x-7---|E||-------------------------------|-------------------------------|
---------------------------------|---------------------------------|--10------------------------10---|--10------------------------10---|--9-------------------------9----|--9-------------------------9----|--7-------------------------7----|--7-------------------------7----|--9---x-x-x-x-x-x-x-x-x-x-x-9----|--9---x-x-x-x-x-x-x-x-x-x-x-9----|---------------------------------|---------------------------------|
-------------------------------|-------------------------------|--9------------------------9---|--9------------------------9---|--9------------------------9---|--9------------------------9---|--9------------------------9---|--9------------------------9---|--7--x-x-x-x-x-x-x-x-x-x-x-7---|--7--x-x-x-x-x-x-x-x-x-x-x-7---|-------------------------------|-------------------------------|
---------------------------------|---------------------------------|--10------------------------10---|--10------------------------10---|--9-------------------------9----|--9-------------------------9----|--7-------------------------7----|--7-------------------------7----|--9---x-x-x-x-x-x-x-x-x-x-x-9----|--9---x-x-x-x-x-x-x-x-x-x-x-9----|---------------------------------|---------------------------------|
-------------------------------|--------------------------------|--9------------------------9---|--9------------------------9-9/-|--9------------------------9---|--9------------------------9-9/-|--9------------------------9---|--9------------------------9-9/-|--7--x-x-x-x-x-x-x-x-x-x-x-7---|--7--x-x-x-x-x-x-x-x-x-x-x-7-7/-|-------------------------------|--------------------------------|
--------------------------------|---------------------------------|--------------------------------|---------------------------------|--8----------8--9-----------9---|--8------------------------8-----|--9--9-9-9-9-9--9---9-9-9-9-9---|--9--9-9-9-9-9-9-9-9-9-9-9-9-9-9-|--9----------9--11----------11--|--9------------------------9-----|--7----------7--9-----------9---|--7------------------------7-----|
--------------------------------|--------------------------------|--------------------------------|--9----------9------------------|--8----------8--9-----------9---|--9----------9--11----------11--|--9--9-9-9-9-9--9---9-9-9-9-9---|--9--9-9-9-9-9--11--9-9-9-9-11--|--9----------9--11----------11--|--7----------7--9-----------9---|--7----------7--9-----------9---|--------------------------------|
-------------------|-------------------------------|-------------------|--9------------------------9---|--6----------------|--9------------------------9---|--7----------------|--9------------------------9---|--7----------------|--7--x-x-x-x-x-x-x-x-x-x-x-7---|--5----------------|-------------------------------|
-------------------------------|-------------------------------|-------------------------------|-----------------9----------9--|--6------------------------6---|--9-----------8--9----------9--|--7------------------------7---|--9-----------9--9----------9--|--7--x-x-x-x-x-x-x-x-x-x-x-7---|--11--x-x-x-x-9--7--x-x-x-x-7--|--5------------------------5---|--9-----------7----------------|
---------------------------------|---------------------------------|---------------------------------|---------------------------------|--6------------------------6-----|--9-----------9---11----------8--|--7--9-9-9-9-9-9-9-9-9-9-9-7-9-9-|--9-----------9---11----------9--|--7------------------------7-----|--11--x-x-x-x-11--9---x-x-x-x-9--|--5------------------------5-----|--9-----------9---------------7--|
-------------------|---------------------------------|--9----------------|--10------------------------10---|--9----------------|--9-------------------------9----|--9----------------|--7-------------------------7----|--7----------------|--9---x-x-x-x-x-x-x-x-x-x-x-9----|-------------------|---------------------------------|
---------------------------------|-------------------------------|--10------------------------10---|--9------------------------9---|--9-------------------------9----|--9------------------------9---|--7-------------------------7----|--9------------------------9---|--9---x-x-x-x-x-x-x-x-x-x-x-9----|--7--x-x-x-x-x-x-x-x-x-x-x-7---|---------------------------------|-------------------------------|
-------------------------------|---------------------------------|--9------------------------9---|--10------------------------10---|--9------------------------9---|--9-------------------------9----|--9------------------------9---|--7-------------------------7----|--7--x-x-x-x-x-x-x-x-x-x-x-7---|--9---x-x-x-x-x-x-x-x-x-x-x-9----|-------------------------------|---------------------------------|
---------------------------------|-------------------------------|--10------------------------10---|--9------------------------9---|--9-------------------------9----|--9------------------------9---|--7-------------------------7----|--9------------------------9---|--9---x-x-x-x-x-x-x-x-x-x-x-9----|--7--x-x-x-x-x-x-x-x-x-x-x-7---|---------------------------------|-------------------------------|
--------------------|--------------------------------|--9--------------9--|--------------------------------|--9--------------9/-|--8----------8--9-----------9---|--9--------------9/-|--9--9-9-9-9-9--9---9-9-9-9-9---|--7--------------7/-|--9----------9--11----------11--|--------------------|--7----------7--9-----------9---|
---------------------------------|--------------------------------|---------------------------------|--------------------------------|--8------------------------8-----|--8----------8--9-----------9---|--9--9-9-9-9-9-9-9-9-9-9-9-9-9-9-|--9--9-9-9-9-9--9---9-9-9-9-9---|--9------------------------9-----|--9----------9--11----------11--|--7------------------------7-----|--7----------7--9-----------9---|
--------------------------------|-------------------|--9----------9------------------|-------------------|--9----------9--11----------11--|--6----------------|--9--9-9-9-9-9--11--9-9-9-9-11--|--7----------------|--7----------7--9-----------9---|--7----------------|--------------------------------|--5----------------|
-------------------------------|-------------------------------|--9------------------------9---|-------------------------------|--9------------------------9---|--6------------------------6---|--9------------------------9---|--7------------------------7---|--7--x-x-x-x-x-x-x-x-x-x-x-7---|--7--x-x-x-x-x-x-x-x-x-x-x-7---|-------------------------------|--5------------------------5---|
-------------------------------|---------------------------------|-----------------9----------9--|---------------------------------|--9-----------8--9----------9--|--6------------------------6-----|--9-----------9--9----------9--|--7--9-9-9-9-9-9-9-9-9-9-9-7-9-9-|--11--x-x-x-x-9--7--x-x-x-x-7--|--7------------------------7-----|--9-----------7----------------|--5------------------------5-----|
----------------------------------|---------------------------------|----------------------------------|---------------------------------|--9-----------9---11----------11--|--6------------------------------|--9-----------9---11----------11--|--7--9-9-9-9-9-9-9-9-9-9-9-9-9-9-|--11--x-x-x-x-11--9---x-x-x-x-9---|--7------------------------------|--9-----------9-------------------|--5------------------------------|
---------------------------------|---------------------------------|---------------------------------|---------------------------------|--6------------------------------|--6------------------------------|--7--9-9-9-9-9-9-9-9-9-9-9-9-9-9-|--7--9-9-9-9-9-9-9-9-9-9-9-9-9-9-|--7------------------------------|--7------------------------------|--5------------------------------|--5------------------------------|
---------------------------------||----------------------------------|------------------9--------------||----------------------------------|--9---------------9--------------||*--6------------------------6-----|--9---9-9-9-9-9-9-9--9-9-9-9-9-9-||*--7--9-9-9-9-9-9-9-9-9-9-9-7-9-9-|--11--------------7--------------||---7--x-x-x-x-x-x-x-x-x-x-x-7-----|--9------------------------------||---5------------------------5-----|
---------------------------------|-----------------------------------|---------------------------------|-----------------------------------|--6------------------------6-----|--9-------------------------9------|--7--9-9-9-9-9-9-9-9-9-9-9-7-9-9-|--9---9-9-9-9-9-9-9-9-9-9-9-9--9-9-|--7--x-x-x-x-x-x-x-x-x-x-x-7-----|--11------------------------11-----|--5------------------------5-----|--9-------------------------9------|
2x ----------------------------------||-------------------|--9----------9--11----------11----||-------------------|--9----------9--11----------11---*||--6----------------|--9--9-9-9-9-9--11--9-9-9-9-11-9-*||--7----------------|--7--x-x-x-x-7--9---x-x-x-x-9-----||--7----------------|----------------------------------||--5----------------|
--7--7--7--7--7--7--7--7--|------------------------------|--9--9--9--9--9--9--9--9--|------------------------------|--9--9--9--9--9--9--9--9--|--6----------6--6----------6--|--9--9--9--9--9--9--9--9--|--7----------7--7----------7--|--------------------------|--7--x-x-x-x-7--7--x-x-x-x-7--|--------------------------|--5----------5--5----------5--|
-------------------------------|------------------------------|-----------------9--------9----|------------------------------|--9-----------8--9--------9----|--6----------6--6----------6--|--9-----------9--9--------9----|--7--9-9-9-9-7--7--9-9-9-9-7--|--11--x-x-x-x-9--7--x-x-x-7-x--|--7--x-x-x-x-7--7--x-x-x-x-7--|--9-----------7----------------|--5----------5--5----------5--|
----------------------------------|-------------------------------|--9-----------9-------------------|--9------------------------9---|--9-----------9---11----------11--|--9------------------------9---|--9-----------9---11----------11--|--9------------------------9---|--11--x-x-x-x-11--9---x-x-x-x-9---|--7--x-x-x-x-x-x-x-x-x-x-x-7---|--9-----------9-------------------|-------------------------------|
-------------------------------|------------------|--------------------|--9------------------------9/--|------------------|--------------------|--9------------------------9/--|------------------|----------------13--|--9------------------------9/--|------------------|--------------------|--7--x-x-x-x-x-x-x-x-x-x-x-7/--|------------------|--------------------|-------------------------------|------------------|--------------------|
--12----------------|--------------------|--------------------|--------------------|--12----------------|--------------------|--------------------|--------------------|--------------------|--------------------|--------------------|----------------11--|--------------------|--------------------|--------------------|--------------------|--------------------|--------------------|
--------------------|-------------------|------------------||--12----------------|--9----------------|------------------||--------------------|-------------------|------------------||--------------------|-------------------|------------------||--------------------|-------------------|------------------||--------------------|-------------------|------------------||
Tap to rate this tab
 
# A B C D E F G H I J K L M N O P Q R S T U V W X Y Z