Datsuns – Mf From Hell tab

                              MF From Hell                                   
Tabber: Beddo
Beddo6@hotmail.com

The repeats etc. need to be repeated as many times as necessary cos I couldn't
remember how long they were repeated for and the end may be slightly wrong but
you can work it out from that.  I'm working out the freeze sucker solos so that
should be along shortly.


E||--------------------------|-------------------------|B||--------------------------|-------------------------|G||--6-----------------------|----------------------6--|D||--6-----------------------|----------------------6--|A||--4---------------2-------|-----------2----------4--|E||-----0-0-2--3--4-------0--|--2--3--4-------3--2-----|
4x|--------------------------|--------------------------|||--------------------------|--------------------------|||*-------------------------|----------------------6--*|||*-------------------------|----------------------6--*|||------------------2-------|-----------2----------4---|||-----0-0-2--3--4-------0--|--2--3--4-------3--2------||
-------------------------|-------------------------|-------------------------|-------------------------|----6--6--6--6--6--6--6--|--6--6--6-------------6--|----6--6--6--6--6--6--6--|--6--6--6-------------6--|----4--4--4--4--4--4--4--|--4--4--4--2----------4--|-------------------------|----------------3--2-----|
|--------------------------|--------------------------|||--------------------------|--------------------------|||*----6--6--6--6--6--6--6--|--6--6--6-------------6--*|||*----6--6--6--6--6--6--6--|--6--6--6-------------6--*|||-----4--4--4--4--4--4--4--|--4--4--4--2----------4---|||--------------------------|----------------3--2------||
-------------------|--------------------------|-------------------|--------------------------|--6----------------|--6-----------------------|--6----------------|--6-----------------------|--4----------------|--4---------------2-------|-------------------|-----0-0-2--3--4-------0--|
-------------------------||--------------------------|-------------------------||--------------------------|----------------------6--||*-------------------------|----------------------6--||*-------------------------|-----------2----------4--||------------------2-------|--2--3--4-------3--2-----||-----0-0-2--3--4-------0--|
2x --------------------------||-------------------------|--------------------------||-------------------------|----------------------6--*||----6--6--6--6--6--6--6--|----------------------6--*||----6--6--6--6--6--6--6--|-----------2----------4---||----4--4--4--4--4--4--4--|--2--3--4-------3--2------||-------------------------|
-------------------------||--------------------------|-------------------------||--------------------------|--6--6--6-------------6--||*----6--6--6--6--6--6--6--|--6--6--6-------------6--||*----6--6--6--6--6--6--6--|--4--4--4--2----------4--||-----4--4--4--4--4--4--4--|----------------3--2-----||--------------------------|
--------------------------||-----------------0--|--------------------------||-----------------0--|--6--6--6-------------6--*||--6--------------1--|--6--6--6-------------6--*||--6--------------2--|--4--4--4--2----------4---||--4--------------2--|----------------3--2------||-----------------0--|
|---------------------|----------------14~-||---------------------|--------------------||*--------------4--4--|--------------------||*--------------4--4--|--------------------||---------------2--2--|--------------------||---------------------|--------------------|
2x ----------12------12------|----------------0---||----|--------------14------14~-|----------------0---||----|--------------------------|----------------1--*||----|--------------------------|----------------2--*||----|--------------------------|----------------2---||----|--------------------------|----------------0---||----|
--19b---16--------------------|------------------|--------------19--17--19--19~-|------------------|------------------------------|------------------|------------------------------|------------------|------------------------------|------------------|------------------------------|------------------|
------------------------|---------------------------|------------------------|---------------------------|--9----9----9--9--9--8--|----8--8--8----8--8--11-11-|------------------------|---------------------------|--7----7----7--7--7--6--|----6--6--6----6--6--9--9--|------------------------|---------------------------|
------------------------------|---------------------------------|------------------------------|---------------------------------|--11----11----15--15--15--13--|--13--13--13--13--13--13--13--9--|------------------------------|---------------------------------|--9-----9-----13--13--13--11--|--11--11--11--11--11--11--11--7--|------------------------------|---------------------------------|
------------------------|------------------------|------------------------|------------------------|--9----9----9--9--9--8--|------8----8--8--8--11--|------------------------|------------------------|--7----7----7--7--7--6--|------6----6--6--6--9---|------------------------|------------------------|
---------------------|-------------------||--------------------------|---------------------|-------------------||--------------------------|--11/----------------|----------------6--||*-------------------------|------------------4--|----------------6--||*-------------------------|--9/--------------4--|----------------4--||------------------2-------|------------------2--|-------------------||-----0-0-2--3--4-------0--|
3x --------------------------||-------------------|--------------------------||-------------------|----------------------6--*||*------------------|----------------------6--*||*------------------|-----------2----------4---||-------------------|--2--3--4-------3--2------||-------------------|
2x -----------------------||---------------------|----------------0--|-----------------------||---------------------|----------------0--|-------------------6--*||---------------------|----------------1--|-------------------6--*||----------0----------|----------------2--|--------2----------4---||----0--0-------------|----------------2--|-------------3--2------||---------------------|----------------0--|
|---------------------|----------------14~-||---------------------|--------------------||*--------------4--4--|--------------------||*--------------4--4--|--------------------||---------------2--2--|--------------------||---------------------|--------------------|
----------12------12------|----------------0---||----|--------------14------14~-|----------------0---||----|--------------------------|----------------1--*||----|--------------------------|----------------2--*||----|--------------------------|----------------2---||----|--------------------------|----------------0---||----|
--19b---16--------------------|------------------|--------------19--17--19--19~-|------------------|------------------------------|------------------|------------------------------|------------------|------------------------------|------------------|------------------------------|------------------|
------------------------|---------------------------|------------------------|---------------------------|--9----9----9--9--9--8--|----8--8--8----8--8--11-11-|------------------------|---------------------------|--7----7----7--7--7--6--|----6--6--6----6--6--9--9--|------------------------|---------------------------|
------------------------------|---------------------------------|------------------------------|---------------------------------|--11----11----15--15--15--13--|--13--13--13--13--13--13--13--9--|------------------------------|---------------------------------|--9-----9-----13--13--13--11--|--11--11--11--11--11--11--11--7--|------------------------------|---------------------------------|
------------------------|------------------------|------------------------|------------------------|--9----9----9--9--9--8--|------8----8--8--8--11--|------------------------|------------------------|--7----7----7--7--7--6--|------6----6--6--6--9---|------------------------|------------------------|
Solo:play verse chord behind it for exactly the same amount of times (includingthe E and B5) and when the repetitive lick comes in before the end flurry play anA for the first two bars a B for the second 2 and then a G behind the flurry. ---------------------|----------------9---|----9--9-----9-----9-----|---------------------|----------------12b-|-------12b---12b---12b---|--11/----------------|--------------------|-------------------------|------------------4--|--------------------|-------------------------|--9/--------------4--|--------------------|-------------------------|------------------2--|--------------------|-------------------------|
--9---9--9--9-----9----9--|----9--9---9--9---9----------|--12b-------12b--------9--|----9--12--9--11--9--11--11--|--------------------------|-------------------------11--|--------------------------|-----------------------------|--------------------------|-----------------------------|--------------------------|-----------------------------|
----------------------------|----------9h-12h-9---------|----9------------9--12--12~-|--------------------12h-9--|----9-----------------------|---------------------------|-------11--11~--------------|---------------------------|----------------------------|---------------------------|----------------------------|---------------------------|
---------------------------------|------------------------19~-|-------------------------17--19--|--19~-------17------17------|--11--9------9/---9/-18----------|----------------18----------|---------11----------------------|----------------------------|---------------------------------|----------------------------|---------------------------------|----------------------------|
----------------------|----------------------------|--------------19--19b-|------19r---17--19--17--16--|----------------------|----------------------------|----------------------|----------------------------|----------------------|----------------------------|----------------------|----------------------------|
----------------------9------|----------------------------------|----17--16---------------12h-|--9--------12--9---------------9--|------------16---------------|-----11b----------11r---9---------|-----------------------------|--------------------------11------|-----------------------------|----------------------------------|-----------------------------|----------------------------------|
-------------------------|----------------------------|-------------------------|----------------------------|----------------9--11r---|------9------9--------9--8--|----11--9--9-------------|---------11-------11--------|-------------------------|----------------------------|-------------------------|----------------------------|
-------------------------|----------------------------|-------------------------|----------17--19b---21b-17--|--8/-6--6--4--4--6--6~---|------18--------------------|-------------------------|----------------------------|-------------------------|----------------------------|-------------------------|----------------------------|
--19~---------------|--------------------------------|--------------------|--17----14--14--------------17--|--------------------|----------------14--14--14------|--------------------|--------------------------------|--------------------|--------------------------------|--------------------|--------------------------------|
--------------------------------|--------------------------------|----17--14--14--------------17--|----17--14--14--------------17--|----------------14--14--14------|----------------15--15--15------|--------------------------------|--------------------------------|--------------------------------|--------------------------------|--------------------------------|--------------------------------|
--------------------------------|--------------------------|----17--14--14--------------13--|------13--13--16r-----13--|----------------15--15--15------|--------------------------|--------------------------------|--------------------------|--------------------------------|--------------------------|--------------------------------|--------------------------|
---------------------------|------13--13--16r-----8/---|---------------------------|---------------------------|---------------------------|---------------------------|
--16-19h16-17h16-19--16-----------------------|----------------------|-------------------------17h14----14h17h14----|--16--19~-------------|-------------------------------18----------18-|----------------------|----------------------------------------------|----------------------|----------------------------------------------|----------------------|----------------------------------------------|----------------------|
--------------------------|-------------------------|--------------------------|-------------------------|--6-----------------------|----------------------6--|--6-----------------------|----------------------6--|--4---------------2-------|-----------2----------4--|-----0-0-2--3--4-------0--|--2--3--4-------3--2-----|
-------------------------|-----------------------0--|-------------------------|-----------------------0--|-------------------------|--6--------------------1--|-------------------------|--6--------------------2--|-----------------2-------|--4---------------2----2--|----0-0-2--3--4-------0--|-----0-0-2--3--4-------0--|
|---------------------|----------------14~-||---------------------|--------------------||*--------------4--4--|--------------------||*--------------4--4--|--------------------||---------------2--2--|--------------------||---------------------|--------------------|
----------12------12------|----------------0---||----|--------------14------14~-|----------------0---||----|--------------------------|----------------1--*||----|--------------------------|----------------2--*||----|--------------------------|----------------2---||----|--------------------------|----------------0---||----|
--19b---16--------------------|------------------|--------------19--17--19--19~-|------------------|------------------------------|------------------|------------------------------|------------------|------------------------------|------------------|------------------------------|------------------|
------------------------|---------------------------|------------------------|---------------------------|--9----9----9--9--9--8--|----8--8--8----8--8--11-11-|------------------------|---------------------------|--7----7----7--7--7--6--|----6--6--6----6--6--9--9--|------------------------|---------------------------|
------------------------------|---------------------------------|------------------------------|---------------------------------|--11----11----15--15--15--13--|--13--13--13--13--13--13--13--9--|------------------------------|---------------------------------|--9-----9-----13--13--13--11--|--11--11--11--11--11--11--11--7--|------------------------------|---------------------------------|
------------------------|------------------------|------------------------|------------------------|--9----9----9--9--9--8--|------8----8--8--8--11--|------------------------|------------------------|--7----7----7--7--7--6--|------6----6--6--6--9---|------------------------|------------------------|
----------------------------------|----------------------------------|----------------------------------|----------------------------------|--11--11--11--11--11--11--11--11--|--13--13--13--13--13--13--13--13--|----------------------------------|----------------------------------|--9---9---9---9---9---9---9---9---|--11--11--11--11--11--11--11--11--|----------------------------------|----------------------------------|
----------------------------------|----------------------------------|----------------------------------|----------------------------------|--15--15--15--15--15--15--15--15--|--11--11--11--11--11--11--11--11--|----------------------------------|----------------------------------|--13--13--13--13--13--13--13--13--|--9---9---9---9---9---9---9---9---|----------------------------------|----------------------------------|
----------------------------------|----------------------------------|----------------------------------|----------------------------------|--11--11--11--11--11--11--11--11--|--13--13--13--13--13--13--13--13--|----------------------------------|----------------------------------|--9---9---9---9---9---9---9---9---|--11--11--11--11--11--11--11--11--|----------------------------------|----------------------------------|
---------------------|------------------|--------------------------|---------------------|------------------|--------------------------|--15/----------------|------------------|--6-----------------------|------------------4--|------------------|--6-----------------------|--13/-------------4--|------------------|--4---------------2-------|------------------2--|------------------|-----0-0-2--3--4-------0--|
-------------------------||-------------------------||----------------------6--||----------------------6--||-----------2----------4--||--2--3--4-------3--2-----||
Please rate this tab:
x1.0