Daughtry – Life After You tab ver. 2

Tabbed by: Josh Daley

Tuning: E A D G B E (Standard) - Capo 1


Intro:

--0-0--0-0--0----0-0--0-0--0----|--5-x--x-x--2----0-0--x-x--0----|--6-4--x-1--4----1-x--x-1--4----|--6-6--2-2--2----2-2--2-2--4----|--4----4----0----2-2--4----2----|-----------------0--------------|
Verse:
--0----0----0----0----|--5----2----0----0----|--6----4----1----4----|--6----2----2----4----|--4----0----2----2----|------------0---------|
Pre Chorus:
--2----0----2----0-----|--2----2----2----2--4--|--3----4----3----4--4--|--2----2----2----2--4--|--4----0----4----0--2--|--2---------2----------|
Chorus:
--0--0-----0--0--0--0----|--2--0--4--5--2--0--0----|--4--1--4--6--4--1--4----|--2--2--4--6--2--2--4----|--0--2--2--4--0--2--2----|-----0-----------0-------|
--0--0-----0--0-----0----0-----|--2--0--4--5--2--4--5----2--4--|--4--1--4--6--4--4--6----4--4--|--2--2--4--6--2--4--6----2--4--|--0--2--2--4--0--2--4----0--2--|-----0-------------------------|
Interlude:
--0----0----0----0---------|--5----2----0----0----4----|--6----4----1----4----4----|--6----2----2----4----4----|--4----0----2----2----2----|------------0--------------|
Bridge:
--0----0----0----0-----|--5----2----0----0--4--|--6----4----1----4--4--|--6----2----2----4--4--|--4----0----2----2--2--|------------0----------|
--0----0----0---------|--5----2----0----4----|--6----4----1----4----|--6----2----2----4----|--4----0----2----2----|------------0---------|
(crescendo)------0-----0-----0---9-8-----0-----0-------0--------------------------|----0-----0-----4---0-------0-----0-------0-0--------------------------|--2-----------4-----------2-------------4-4-4-- - Back to chorus --|--------2-----------------------2-----4-4-4-4--------------------------|--------------------------------------2-2-2-2--------------------------|-----------------------------------------------------------------------|
Outro:
--0----0-----0--0-------|--5----2--4--2--0--4----|--6----4--4--4--1--4----|--6----2--4--2--2--4----|--4----0--2--0--2--2----|----------------0-------|
--0--0-------0--0--0----0----------------|--2--0--4----2--0--0----0----------------|--4--1--4----4--1--4----x----------------|--2--2--4----2--2--4----2----------------|--0--2--2----0--2--2----2----------------|-----0----------0-------0----------------| Let Ring
Please rate this tab:
x1.0