David Grubbs - Dont Think tab

Tabber;Peter Nanayon
E-mail;deewantoy_11@yahoo.com
c.p. #;09106882480

mGa dUds..,sa tingin ko naman 95% accurate to.Enjoy.,please comment naman jan mga
master.,and rate.

Note;
Tuning:half-step down
(Eb-Ab-Db-Gb-bb-eb)

Legends
/=slide up
~=vibrato or let ring
b=bend
r=release to

sa iba nyo na lang kunin ung lyrics  and chords neto,tntamad aq eh.,hehe..,suggest q ung 
neto na chords pero gamitin nyo ung tuning q.,mali ata ung tuning nung ver(2)chords.

Interlude>after chorus 1
F-C Dm
00:49|---------------||---------------||-10-10---------||-10-10--8-7----||-8--8----------||---------------|
|----------------||----------------||-5-5------------||-5-5-5/7-7------||-3-3------------||----------------|
|--------------------||--------------------||--------------------||-2-3-2-3--2h3/5-----||--------------------||--------------------|
F-C Gm
|----------------||----------------||-10-10----------||-10-10--8-7-----||-8--8-----------||----------------|
|-------------||-------------||-5-5---------||-5-5-5/7-7---||-3-3---------||-------------|
|------------------------||------------------------||------------------------||--------2-3-2-3/5-5-----||-5-3-5------------------||------------------------|
Solo01:29|-----------------------------||--------------11-10----------||----12-10-12--------12-10----||-12--------------------------||-----------------------------||-----------------------------|
|----------------------------||-----------------------10---||-12b~~~-12-10-12b~~~--------||----------------------------||----------------------------||----------------------------|
|-------------------------------||-----------10-10h11-10---------||-12b-r-10---------------10-----||-------------------------------||-------------------------------||-------------------------------|
|----------------||----------------||----------------||-10/12-10-------||----------------||----------------|
|---------------------||---------------10----||----12-10-12---------||-12------------------||---------------------||---------------------|
|-12/15--12h13-13~~~-----||------------------------||------------------------||------------------------||------------------------||------------------------|
|--18/20--18~~-20/22-20-----||---------------------------||---------------------------||---------------------------||---------------------------||---------------------------|
|-18-20-18-17---------------||---------------18-18/20~---||---------------------------||---------------------------||---------------------------||---------------------------|
|------------------------||-15/17--17/18--18~~~----||------------------------||------------------------||------------------------||------------------------|
|-----------------------||-----------------------||-15/17--17-17--15------||-----------------------||-----------------------||-----------------------|
|------------------------||------------------------||-15-15-15-14-14-15------||------------------------||------------------------||------------------------|
|--------------------------||-13h15-13-----13----------||------------15-----15-----||--------------------------||--------------------------||--------------------------|
|---------------------||---------------------||-14-----12/14~~~-----||-----15--------------||---------------------||---------------------|
|----------------------||-12h13-15-13-12-------||----------------------||----------------------||----------------------||----------------------|
|-----------------------||-----------------------||-14-12-----------------||--------14-12-14-------||-----------------------||-----------------------|
|---------------------||---------------------||-12h14--14b~~~-------||---------------------||---------------------||---------------------|
|--------------------------||--------------------------||-12---------------12~~----||----14-12-10h12-----------||--------------------------||--------------------------|
| ung outro deh ko pa lam hehe..,pero halos parehas lang un ng interlude.,tumaas lang ung may konting nabago sa huli,enjoy..,please comment.., rock n roll..!!,
Tap to rate this tab
 
# A B C D E F G H I J K L M N O P Q R S T U V W X Y Z