Days Of The New - Touch Peel And Stand tab

-----------------------------------------------------------------------------
			     SONG NAME - Band Name
-----------------------------------------------------------------------------
Tabbed by:Zatch_guitarist

Tuning:DABGDe



|--------------------||----10-------10-----||----10-------10-----||-12----10-12----12\-||--------------------||--------------------|
|-----------------------------------||-10-12-12-12b13-12-10-12-10~~~-10\-||-10-12-12-12b13-12----12-10~~~-10\-||-----------------------------------||-----------------------------------||-----------------------------------|
|--------------------------------||-13-15-15-15\13-13----13-10-10\-||-12-14-14-14\12-12p10-12-10-10\-||--------------------------------||--------------------------------||--------------------------------|
|-----------------------------||-------10-12-------10~~~-10\-||-------10-12-12b13-10~~~-10\-||-12-12-----------------------||-----------------------------||-----------------------------|
|-13p10----13----10-15p10----13----10-||-------13----13----------13----13----||-------------------------------------||-------------------------------------||-------------------------------------||-------------------------------------|
|-------------------------------------||-13p10----13----10-15p10----13----10-||-------12----12----------12----12----||-------------------------------------||-------------------------------------||-------------------------------------|
|----------------------------------||----------------------------------||-12p10----12----10-13p12p10-------||-------12----12-------------12-10-||----------------------------------||----------------------------------|
|------------------------------------------||------------------------------------------||----------------5-7-5---7-5---------------||------------5/7-------7-----7-----6b7-X---||-12-11p10\8-------------------5-5-----X---||------------------------------------------|
|---------------------------||---------------------------||-5/7-7\5-7/10-10\7-5/7-5/7-||---------------------------||-3/5-5\3-5/8--8-\5-3/5-3/5-||---------------------------|
|---------------------------------||---8-----10------13-------15-----||---------------------------------||-5---5/7----7/10----10/12----12\-||---------------------------------||---------------------------------|
|-------------------------------------------------||-12-12-12-10-10-10-------------------------10-10-||-12-12-12-10-10-10-12-12-12-10-10-10-12-12-10-10-| x2|-------------------12-12-12-10-10-10-12-12-------||-------------------------------------------------||-------------------------------------------------|
|----------------------------------------------||-12-12-12-10-10-10----------10-10-10----------||-12-12-12-10-10-10-12-12-12-10-10-10-12-12-10-||-------------------12-12-12----------12-12-10-||----------------------------------------------||----------------------------------------------|
|-------10-10-------10-10-------10-10-------10-10-||-13b15-------13b15-------13b15-------13b15-------||-------------------------------------------------||-------------------------------------------------||-------------------------------------------------||-------------------------------------------------|
|-------10-------10-||-13b15----13b15----||-------------------||-------------------||-------------------||-------------------|
Tap to rate this tab
 
# A B C D E F G H I J K L M N O P Q R S T U V W X Y Z