Days Of The New - Whats Left For Me tab

DAYS OF THE NEW
Song:What's Left For Me
Transcribe By:Travis Wells
Email:tewells27@yahoo.com

Notice the other tab on here is way off so i thought to do it myself.So here you go.Enjoy


  All guitars tuned to Db Minor (Db,Fb,Db,Fb,Ab,Fb)

  Intro:

|---------0-----------0-----------0-----------0---||-----5-----5-----5-----5---5-------5-----5-----5\||---0---0-------0---0-----------0-------0---0-----||-7-----------0-----------7---7-------0-----------||-------------------------------------------------||-------------------------------------------------|
|---------0-----------0-----------0---------------||-----1-----1-----1-----1---1-------1-----1-------||---4---4-------4---4-----------4-------4---4-----||-0-----------3-----------0---0-------3-------5/7-||-------------------------------------------------||-------------------------------------------------|
|---------0-----------0-----------0-----------0---||-----5-----5-----5-----5---5-------5-----5-----5\||---0---0-------0---0-----------0-------0---0-----||-7-----------0-----------7---7-------0-----------||-------------------------------------------------||-------------------------------------------------|
|---------0-----------0-----------0---------------||-----1-----1-----1-----1---1-------1-------------||---4---4-------4---4-----------4-----2-0---------||-0-----------3-----------0---0-----------2-0-----||---------------------------------------------3-0-||-------------------------------------------------|
|----------------------------------------------------------||---------0-----------0-----------0---------5--------------||-----0-----0---0---0---0---0---0---------5---2h4----------||---2---2-----2---2-------2---2-----0-4h5---------2h3p2p0--||-------------------------(0)------------------------------||-3--------------------------------------------------------|
|---------0-----------0-----------0-----------0---||-----5-----0-----5-----5-----5-----5-----5-----5-||---0---0-------0---0-------0---0-------0---0-----||(0)----------7-----------7-----------7-----------||-------------------------------------------------||-------------------------------------------------|
|---------0-----------0-----------0---------------||-----5-----0-----5-----5-----5-----5-------------||---0---0-------0---0-------0---0---------------0-||-7-----------7-----------7-------------0---0-----||-------------------------------------------------||-------------------------------------8---7---6---|
Home (play this part 4 times): ---------0-----------0-----------0---------------||-----5-----0-----5-----0-----5-----0-------------||---0---0-------0---0-------0---0---------------0-||---------------------------------------0---0-----||-------------------------------------------------||-0-----------0-----------0-----------8---7---6---|
Chorus Chords:Bbmaj9,Dm,Dm9,Bbmaj9,Dm,A(9)
|---------0-----------0-----------0-----------0---||-----5-----5-----5-----5---5-------5-----5-----5-||---0---0-------0---0-----------0-------0---0-----||-7-----------0-----------7---7-------0-----------||-------------------------------------------------||-------------------------------------------------|
|---------0-----------0-----------0-----------0---||-----5-----5-----5-----5---5-------5-----5-----5-||---0---0-------0---0-----------0-------0---0-----||-8-----------0-----------8---8-------0-----------||-------------------------------------------------||-------------------------------------------------|
|---------------------------------------------------||-----5---5-------5---5-----5-----5-------5---5-----||---0---0---0---0---0---0-------0---0---0---0---0---||-7-----------0-----------7---7-------0-------------||---------------------------------------------------||---------------------------------------------------| |_
know in your mind... |_ |_ _|-(play twice) _||-------------------------------------------------| ---||-----5---5-------5---5-----5-----5-------5---5---|-----||---0---0---0---0---0---0-------0---0---0---0---0-------||-8-----------0-----------8---8-------0-----------------||-------------------------------------------------------||-------------------------------------------------------| got to remember...
|---------------------------------------------------||---------0-----------0-----------0-----------------||---0---0---0---0---0---0---0---0---0-2-0-----------||-2---2-------2---2-------2---2-----------2-0-------||---------------------------------------------7-4---||---------------------------------------------------|
|---------0-----------0-----------0---------------||-----5-----0-----5-----0-----5-----0-------------||---0---0-------0---0-------0---0---------------0-||-------------7-----------7-------------0---0-----||-------------------------------------------------||-0-----------------------------------8---7---6---|
Home 2:
|---------0-----------0-----------0-----------------||-----5-----0-----5-----0-----5-----0---------------||---0---0-------0---0-------0---0---------------0---||---------------------------------------0---0-------||---------------------------------------------------||-0-----------0-----------0-----------8---7---6-----| |_
|_ |_ _|-(Play 4 times) _||---------0-----------0-----------0---------------| ---||-----5-----0-----5-----0-----5-----0-------------|-----||---0---0-------0---0-------0---0---------------0-------||---------------------------------------0---0-----------||-------------------------------------------------------||-0-----------3-----------0-----------8---7---6---------|
Chorus:
|---------------------------------------------------||-----5---5-------5---5-----5-----5-------5---5-----||---0---0---0---0---0---0-------0---0---0---0---0---||-7-----------0-----------7---7-------0-------------||---------------------------------------------------||---------------------------------------------------| |_
Know in your mind... |_ |_ _|-(play 4 times) _||-------------------------------------------------| ---||-----5---5-------5---5-----5-----5-------5---5---|-----||---0---0---0---0---0---0-------0---0---0---0---0-------||-8-----------0-----------8---8-------0-----------------||-------------------------------------------------------||-------------------------------------------------------| got to remember...
|-------------------------------------------------||-----0---0-------0---0-------0---0---------------||---0---0---0---0---0---0---0---0---0-2-0---------||-2-----------2-----------2---------------2-0-----||---------------------------------------------3-0-||-------------------------------------------------|
|---------0-----------0-----------0-----------------||-----5-----0-----5-----0-----5-----0---------------||---0---0-------0---0-------0---0-----2-0-----------||-------------7-----------7---------------2-0-------||---------------------------------------------3-0---||-0-----------------------------------------------0-| yeah...
Chorus:
|---------0-----------0-----------0-----------0---||-----5-----5-----5-----5---5-------5-----5-----5-||---0---0-------0---0-----------0-------0---0-----||-7-----------0-----------7---7-------0-----------||-------------------------------------------------||-------------------------------------------------|
|---------0-----------0-----------0---------------||-----1-----1-----1-----1---1-------1-------------||---4---4-------4---4-----------4-----2-0---------||-0-----------3-----------0---0-----------2-0-----||---------------------------------------------3-0-||-------------------------------------------------|
|-----------------------------------------------------------||---------0-----------0-----------0---------5---------------||-----0-----0---0---0---0---0---0---------5---2h4-----------||---2---2-----2---2-------2---2-----0-4h5---------2h3p2p0---||-----------------------------------------------------------||-3---------------------------------------------------------|
|-------------------------------------------------||------5p0--5p0--5p0--0h5-------------------------||-------------------------------------------------||---0---------------------------------------------||-------------------------------------------------||-0-----------------------------------------------|
Tap to rate this tab
 
# A B C D E F G H I J K L M N O P Q R S T U V W X Y Z