Dead And Divine - Goodnight Quiet City tab

band link:
www.myspace.com/deaddivine

STRINGS:
E
B
G
D
A
E

x = don't touch this string.

Intro

-------------------------------------------|---7-7-7-7-7-8-8-8-8-8-7-7-7-7-7-8-8-8-8-8-|---0-0-0-0-0-0-0-0-0-0-0-0-0-0-0-0-0-0-0-0-|---0-0-0-0-0-0-0-0-0-0-0-0-0-0-0-0-0-0-0-0-|---7-7-7-7-7-7-7-7-7-7-7-7-7-7-7-7-7-7-7-7-|-------------------------------------------|
------------------------------------------------|---7-7-7-7-7-8-8-8-8-8-10-10-10-10-10-8-8-8-8-8-|---0-0-0-0-0-0-0-0-0-0-0 -0 -0 -0 -0 -0-0-0-0-0----0-0-0-0-0-0-0-0-0-0-0 -0 -0 -0 -0 -0-0-0-0-0----0-0-0-0-0-0-0-0-0-0-0 -0 -0 -0 -0 -0-0-0-0-0-------------------------------------------------
-------------------------------------------|---7-7-7-7-7-8-8-8-8-8-7-7-7-7-7-8-8-8-8-8-|---0-0-0-0-0-0-0-0-0-0-0-0-0-0-0-0-0-0-0-0-|---0-0-0-0-0-0-0-0-0-0-0-0-0-0-0-0-0-0-0-0-|---7-7-7-7-7-7-7-7-7-7-7-7-7-7-7-7-7-7-7-7-|-------------------------------------------|
------------------------ |---7-7-7-7-7-8-8-8-8-8-10 |---0-0-0-0-0-0-0-0-0-0-0 |---0-0-0-0-0-0-0-0-0-0-0 |---0-0-0-0-0-0-0-0-0-0-0 |------------------------ | (end of intro)
Pretty you are..(8)
-------------------------------------------|---7-7-7-7-7-8-8-8-8-8-7-7-7-7-7-8-8-8-8-8-|---0-0-0-0-0-0-0-0-0-0-0-0-0-0-0-0-0-0-0-0-|---0-0-0-0-0-0-0-0-0-0-0-0-0-0-0-0-0-0-0-0-|---7-7-7-7-7-7-7-7-7-7-7-7-7-7-7-7-7-7-7-7-|-------------------------------------------|
------------------------------------------------|---7-7-7-7-7-8-8-8-8-8-10-10-10-10-10-8-8-8-8-8-|---0-0-0-0-0-0-0-0-0-0-0 -0 -0 -0 -0 -0-0-0-0-0----0-0-0-0-0-0-0-0-0-0-0 -0 -0 -0 -0 -0-0-0-0-0----0-0-0-0-0-0-0-0-0-0-0 -0 -0 -0 -0 -0-0-0-0-0-------------------------------------------------
0.26 seconds---------------|---7-7-7-7-7-8-|---0-0-0-0-0-0-|---0-0-0-0-0-0-|---7-7-7-7-7-7-|---------------|
pause at the 27th second until 30th second then: For this month...(8)
-----------------------------------------------------|---7-7-7-7-7-8-8-8-8-8-10-10-10-10-10-10-10-10-10-10-|---0-0-0-0-0-0-0-0-0-0-0 -0 -0 -0 -0 -0 - 0- 0- 0- 0----0-0-0-0-0-0-0-0-0-0-0 -0 -0 -0 -0 -0 - 0- 0- 0- 0----0-0-0-0-0-0-0-0-0-0-0 -0 -0 -0 -0 -0 - 0- 0- 0- 0------------------------------------------------------
-------------------------------------------|---7-7-7-7-7-8-8-8-8-8-7-7-7-7-7-8-8-8-8-8-|---0-0-0-0-0-0-0-0-0-0-0-0-0-0-0-0-0-0-0-0-|---0-0-0-0-0-0-0-0-0-0-0-0-0-0-0-0-0-0-0-0-|---7-7-7-7-7-7-7-7-7-7-7-7-7-7-7-7-7-7-7-7-|-------------------------------------------|
------------------------------------------------|---7-7-7-7-7-8-8-8-8-8-10-10-10-10-10-8-8-8-8-8-|---0-0-0-0-0-0-0-0-0-0-0 -0 -0 -0 -0 -0-0-0-0-0----0-0-0-0-0-0-0-0-0-0-0 -0 -0 -0 -0 -0-0-0-0-0----0-0-0-0-0-0-0-0-0-0-0 -0 -0 -0 -0 -0-0-0-0-0-------------------------------------------------
----------------------------------------------------|---7-7-7-7-7-7-8-8-8-8-8-8-7-7-7-7-7-7-8-8-8-8-8-8--|---0-0-0-0-0-0-0-0-0-0-0-0-0-0-0-0-0-0-0-0-0-0-0-0--|---0-0-0-0-0-0-0-0-0-0-0-0-0-0-0-0-0-0-0-0-0-0-0-0--|---7-7-7-7-7-7-7-7-7-7-7-7-7-7-7-7-7-7-7-7-7-7-7-7--|----------------------------------------------------|
---------------------------------------------------------|---7-7-7-7-7-7-8-8-8-8-8-8-10-10-10-10-10-10-8-8-8-8-8-8-|---0-0-0-0-0-0-0-0-0-0-0-0- 0- 0- 0- 0- 0- 0-0-0-0-0-0-0-|---0-0-0-0-0-0-0-0-0-0-0-0- 0- 0- 0- 0- 0- 0-0-0-0-0-0-0-|---0-0-0-0-0-0-0-0-0-0-0-0- 0- 0- 0- 0- 0- 0-0-0-0-0-0-0-|---------------------------------------------------------|
CHORUS: (at 51 seconds) we'll make history tonight..(8)
----------------------------------------------------- |----------------------------------------------------- |---7-7-7-7-7-9-9-9-9-9-11-11-11-11-11-12-12-12-12-12- |---x-x-x-x-x-x-x-x-x-x- x- x- x- x- x- x- x- x- x- x- | PLAY 3 TIMES---5-5-5-5-5-7-7-7-7-7- 9- 9- 9- 9- 9-10-10-10-10-10- |----------------------------------------------------- |
then..(at 1:04)
--------------------------------------|--------------------------------------|---7-7-7-7-7-9-9-9-9-9-11-11-11-11-11-|---x-x-x-x-x-x-x-x-x-x- x- x- x- x- x-|---5-5-5-5-5-7-7-7-7-7- 9- 9- 9- 9- 9-|--------------------------------------|
Verse 2: (at 1:08)
-------------------------------------------|---7-7-7-7-7-8-8-8-8-8-7-7-7-7-7-8-8-8-8-8-|---0-0-0-0-0-0-0-0-0-0-0-0-0-0-0-0-0-0-0-0-|---0-0-0-0-0-0-0-0-0-0-0-0-0-0-0-0-0-0-0-0-|---7-7-7-7-7-7-7-7-7-7-7-7-7-7-7-7-7-7-7-7-|-------------------------------------------|
------------------------------------------------|---7-7-7-7-7-8-8-8-8-8-10-10-10-10-10-8-8-8-8-8-|---0-0-0-0-0-0-0-0-0-0-0 -0 -0 -0 -0 -0-0-0-0-0----0-0-0-0-0-0-0-0-0-0-0 -0 -0 -0 -0 -0-0-0-0-0----0-0-0-0-0-0-0-0-0-0-0 -0 -0 -0 -0 -0-0-0-0-0-------------------------------------------------
-------------------------------------------|---7-7-7-7-7-8-8-8-8-8-7-7-7-7-7-8-8-8-8-8-|---0-0-0-0-0-0-0-0-0-0-0-0-0-0-0-0-0-0-0-0-|---0-0-0-0-0-0-0-0-0-0-0-0-0-0-0-0-0-0-0-0-|---7-7-7-7-7-7-7-7-7-7-7-7-7-7-7-7-7-7-7-7-|-------------------------------------------|
------------------------------------------------|---7-7-7-7-7-8-8-8-8-8-10-10-10-10-10-8-8-8-8-8-|---0-0-0-0-0-0-0-0-0-0-0 -0 -0 -0 -0 -0-0-0-0-0----0-0-0-0-0-0-0-0-0-0-0 -0 -0 -0 -0 -0-0-0-0-0----0-0-0-0-0-0-0-0-0-0-0 -0 -0 -0 -0 -0-0-0-0-0-------------------------------------------------
-------------------------------------------|---7-7-7-7-7-8-8-8-8-8-7-7-7-7-7-8-8-8-8-8-|---0-0-0-0-0-0-0-0-0-0-0-0-0-0-0-0-0-0-0-0-|---0-0-0-0-0-0-0-0-0-0-0-0-0-0-0-0-0-0-0-0-|---7-7-7-7-7-7-7-7-7-7-7-7-7-7-7-7-7-7-7-7-|-------------------------------------------|
------------------------------------------------|---7-7-7-7-7-8-8-8-8-8-10-10-10-10-10-8-8-8-8-8-|---0-0-0-0-0-0-0-0-0-0-0 -0 -0 -0 -0 -0-0-0-0-0----0-0-0-0-0-0-0-0-0-0-0 -0 -0 -0 -0 -0-0-0-0-0----0-0-0-0-0-0-0-0-0-0-0 -0 -0 -0 -0 -0-0-0-0-0-------------------------------------------------
---------------------------------------------------|---7-7-7-7-7-7-8-8-8-8-8-8-7-7-7-7-7-7-8-8-8-8-8-8-|---0-0-0-0-0-0-0-0-0-0-0-0-0-0-0-0-0-0-0-0-0-0-0-0-|---0-0-0-0-0-0-0-0-0-0-0-0-0-0-0-0-0-0-0-0-0-0-0-0-|---7-7-7-7-7-7-7-7-7-7-7-7-7-7-7-7-7-7-7-7-7-7-7-7-|---------------------------------------------------|
---------------------------------------------------------|---7-7-7-7-7-7-8-8-8-8-8-8-10-10-10-10-10-10-8-8-8-8-8-8-|---0-0-0-0-0-0-0-0-0-0-0-0- 0- 0- 0- 0- 0- 0-0-0-0-0-0-0-|---0-0-0-0-0-0-0-0-0-0-0-0- 0- 0- 0- 0- 0- 0-0-0-0-0-0-0-|---0-0-0-0-0-0-0-0-0-0-0-0- 0- 0- 0- 0- 0- 0-0-0-0-0-0-0-|---------------------------------------------------------|
Chorus again: (1:43) We'll make history tonight..(8)
----------------------------------------------------- |----------------------------------------------------- |---7-7-7-7-7-9-9-9-9-9-11-11-11-11-11-12-12-12-12-12- |---x-x-x-x-x-x-x-x-x-x- x- x- x- x- x- x- x- x- x- x- | PLAY 7 TIMES---5-5-5-5-5-7-7-7-7-7- 9- 9- 9- 9- 9-10-10-10-10-10- |----------------------------------------------------- |
then..(at 2:13)
--------------------------------------|--------------------------------------|---7-7-7-7-7-9-9-9-9-9-11-11-11-11-11-|---x-x-x-x-x-x-x-x-x-x- x- x- x- x- x-|---5-5-5-5-5-7-7-7-7-7- 9- 9- 9- 9- 9-|--------------------------------------|
bridge: (at 2:17) one last kiss..(8)
----------------------------------------|-------7---------8---------7---------8--|-------0---------0---------0---------0--|------0---------0---------0---------0---|-----7---------7---------7---------7----|---0---------0---------0---------0------|
----------------------------------------|-------7---------8---------7---------8--|-------0---------0---------0---------0--|------0---------0---------0---------0---|-----0---------0---------0---------0----|---0---------0---------0---------0------|
(at 2:51)------------------------------------------|-----------7---7---7---7---7---7---7---7--|----------0-0-0-0-0-0-0-0-0-0-0-0-0-0-0-0-|------------------------------------------|------------------------------------------|---0--------------------------------------|
----------------------------------|----8---8---8---8---8---8---8---8-|--0-0-0-0-0-0-0-0-0-0-0-0-0-0-0-0-|----------------------------------|----------------------------------|----------------------------------|
-----------------------------------------|----10---10---10---10---10---10---10--10-|--0-0--0-0--0-0--0-0--0-0--0-0--0-0--0-0-|-----------------------------------------|-----------------------------------------|-----------------------------------------|
-----------------------------------------|----12---12---12---12---12---12---12--12-|--0-0--0-0--0-0--0-0--0-0--0-0--0-0--0-0-|-----------------------------------------|-----------------------------------------|-----------------------------------------|end of acoustic.
then it goes to electric guitar, and its all repetition, so that's basically the entire part of the song.
Tap to rate this tab
 
# A B C D E F G H I J K L M N O P Q R S T U V W X Y Z