Deadlock - Code Of Honor tab version 1

Hi guys, this is the second tab that i upload, this is my version of the song CODE
OF HONOR BY DEADLOCK,..PLEASE RATE THIS TABLATURE,...and i hope you liked

Note: i will try to upload with guitar solo  soon

code of honor

Tunning:

1 :D               PALM MUTTING: P.M
2 :A               SLIDE : /
3 :F               HAMMER ON: H
4 :D               PULL OFF:  p
5 :G
6 :C               BEND: b (NOTE)
                   HARMONIC: H.C

Guitar Intro|--------------------------------------------------------------------------||--------------------------------------------------------------------------||---------7----7p--5----------7--5--------7--7/9--9----------10-9----------||---5h-7----------------5h-7--------5h-7--------------7h-10--------7-/3----| X2|--------------------------------------------------------------------------||--------------------------------------------------------------------------|
|--------------------------------------------------------------------------||--------------------------------------------------------------------------||--------------------------------------------------------------------------||--------------------------------------------------------------------------||--------------------------------------------------------------------------||--0000000000--------000000------------------------------------------------| P.M P.M
Note: When you find spaceless notes is my signal to use Tremolo Picking
Guitar riff one|-------------------------------------------------------------||-------------------------------------------------------------||-------------------------------------------------------------||-------------------------------------------------------------||----------0-------------0-0-0-----------0-------------0-0-0--||--0-0-0-0-0--0-0-0-0-0--0-0-0---0-0-0-0-0--0-0-0-0-0--0-0-0--| P.M P.M P.M P.M X2
|-------------------------------------------------------------||-------------------------------------------------------------||-------------------------------------------------------------||----------------------------------------3--------------------||----------0-------------0-0-0---1-1-1-1-1--------------------||--0-0-0-0-0--0-0-0-0-0--0-0-0-------------5-5-5-5-5h-7p-5--3-| P.M P.M
Guitar riff two|-------------------------------------------------------------||-------------------------------------------------------------||-------------------------------------------------------------||------3---3--------3---2-----------------3-----------3---3---||--1-1---1----1111----1---1-3---------0-----------0-----------||---------------------------------0-0---0----0000---0---0-----| P.M P.M P.M P.M P.M P.M P.M P.M
|-------------------------------------------------------------||-------------------------------------------------------------||-----------------------0--0----------------------------------||------3---3--------3---------------------3-----------3---3---||--1-1---1----1111----1---1-----------0-----------0-----------||---------------------------------0-0---0----0000---0---0-----| P.M P.M P.M P.M P.M P.M P.M P.M
Guitar riff three|----------------3------------3-------------------------------||-----------6------------6-----------10p-8p-6-----------------||------3-3----3-----3-3-----3----3-------------9p-7p-5--------||-------------------------------------------------------------||-------------------------------------------------------------||-------------------------------------------------------------|
X2
|----------------3------------3-------------------------------||-----------6------------6-----------10p-8p-6-----------------||------2-2----2-----2-2-----2----2-------------9p-7p-5--------||-------------------------------------------------------------||-------------------------------------------------------------||-------------------------------------------------------------|
Guitar riff four (chorus)|------------------------------------------------------------------||------------------------------------------------------------------||------------------------------------------------------------------||--3---3-3-3-3-3-3---3-5---5-5-5-5-5-5---5-3---3-3-3-3-3-3---3-----||--1---1-1-1-1-1-1---1-3---3-3-3-3-3-3---3-5---5-5-5-5-5-5---5-3---||--------------------------------------------------------------3---|
|-----------------------------------------------------------------------------||-----------------------------------------------------------------------------||-----------------------------------------------------------------------------||-------------------3---3-3-3-3-3-3---3-5---5-5-5-5-5-5---5-3---3-3-3-3-3-3---||--3-3-3--3-3-3-----1---1-1-1-1-1-1---1-3---3-3-3-3-3-3---3-5---5-5-5-5-5-5---||--3-3-3--2-2-2---------------------------------------------------------------|
|-----------------------------------------------------------------||-----------------------------------------------------------------||-----------------------------------------------------------------||--3--------------------------------------------------------------||--5-3---3-3-3-----3----------------------------------------------||----3---3-3-3-----2----------------------------------------------|
Guitar riff one (Again)|-------------------------------------------------------------||-------------------------------------------------------------||-------------------------------------------------------------||-------------------------------------------------------------||----------0-------------0-0-0-----------0-------------0-0-0--||--0-0-0-0-0--0-0-0-0-0--0-0-0---0-0-0-0-0--0-0-0-0-0--0-0-0--| P.M P.M P.M P.M X2
|-------------------------------------------------------------||-------------------------------------------------------------||-------------------------------------------------------------||----------------------------------------3--------------------||----------0-------------0-0-0---1-1-1-1-1--------------------||--0-0-0-0-0--0-0-0-0-0--0-0-0-------------5-5-5-5-5h-7p-5--3-| P.M P.M
Guitar riff two (Again)|-------------------------------------------------------------||-------------------------------------------------------------||-------------------------------------------------------------||------3---3--------3---2-----------------3-----------3---3---||--1-1---1----1111----1---1-3---------0-----------0-----------||---------------------------------0-0---0----0000---0---0-----| P.M P.M P.M P.M P.M P.M P.M P.M
|-------------------------------------------------------------||-------------------------------------------------------------||-----------------------0--0----------------------------------||------3---3--------3---------------------3-----------3---3---||--1-1---1----1111----1---1-----------0-----------0-----------||---------------------------------0-0---0----0000---0---0-----| P.M P.M P.M P.M P.M P.M P.M P.M
Guitar riff three (this riff has a different end)|----------------3------------3-------------------------------||-----------6------------6-----------10p-8p-6-----------------||------3-3----3-----3-3-----3----3-------------9p-7p-5--------||-------------------------------------------------------------||-------------------------------------------------------------||-------------------------------------------------------------|
X2
|----------------3------------3-------------------------------||-----------6------------6-----------10p-8p-6-----------------||------2-2----2-----2-2-----2----2-------------9p-7p-5--------||-------------------------------------------------------------||-------------------------------------------------------------||-------------------------------------------------------------|
|----------------3------------3-------------------------------||-----------6------------6-----------10p-8p-6-----------------||------3-3----3-----3-3-----3----3-------------9p-7p-5--------||-------------------------------------------------------------||-------------------------------------------------------------||-------------------------------------------------------------|
|-----------5---3--------5----3-------------------------------||------------------------------------10p-8p-6-----------------||------5-5----5-----5-5-----5---5--------------9p-7p-5--------||-------------------------------------------------------------||-------------------------------------------------------------||-------------------------------------------------------------|
|----------------3------------3-------------------------------||-----------6------------6-----------10p-8p-6-----------------||------2-2----2-----2-2-----2----2-------------9p-7p-5--------||-------------------------------------------------------------||-------------------------------------------------------------||-------------------------------------------------------------|
|-----------5---5--------3----3-----3---3---------------------||-------------------------------------------------------------||------5-5----5-----5-5-----5---5-5---5----------9p-7p-5------||-------------------------------------------------------------||-------------------------------------------------------------||-------------------------------------------------------------|
Guitar riff four (chorus)|------------------------------------------------------------------||------------------------------------------------------------------||------------------------------------------------------------------||--3---3-3-3-3-3-3---3-5---5-5-5-5-5-5---5-3---3-3-3-3-3-3---3-----||--1---1-1-1-1-1-1---1-3---3-3-3-3-3-3---3-5---5-5-5-5-5-5---5-3---||--------------------------------------------------------------3---|
|-----------------------------------------------------------------------------||-----------------------------------------------------------------------------||-----------------------------------------------------------------------------||-------------------3---3-3-3-3-3-3---3-5---5-5-5-5-5-5---5-3---3-3-3-3-3-3---||--3-3-3--3-3-3-----1---1-1-1-1-1-1---1-3---3-3-3-3-3-3---3-5---5-5-5-5-5-5---||--3-3-3--2-2-2---------------------------------------------------------------|
|-----------------------------------------------------------------||-----------------------------------------------------------------||-----------------------------------------------------------------||--3--------------------------------------------------------------||--5-3---3-3-3-----3----------------------------------------------||----3---3-3-3-----2----------------------------------------------|
After this fiff, the next is the intro|--------------------------------------------------------------------------||--------------------------------------------------------------------------||---------7----7p--5----------7--5--------7--7/9--9----------10-9----------||---5h-7----------------5h-7--------5h-7--------------7h-10--------7-/3----| X2|--------------------------------------------------------------------------||--------------------------------------------------------------------------|
|--------------------------------------------------------------------------||--------------------------------------------------------------------------||--------------------------------------------------------------------------||--------------------------------------------------------------------------| X2|--------------------------------------------------------------------------||--0000000000----000000----0000000000---000000000----00000-----------------| P.M P.M P.M P.M P.M
Guitar riff five|----------------------------------------------------------||----------------------------------------------------------||--------------14-------------15-------12-------14---------||----------------------------------------------------------| x2|--12-12-12-12----12-12-12-12----12-12----12-12------------||----------------------------------------------------------|
Guitar riff six|----------------------------------------------------------------------------------------||----------------------------------------------------------------------------------------||------------------------------------------------------------------------15-15-14-14-----||--14---14h-15----14----14h-17----14----14h-15-12---14---14h-15----14------------------15||-----12-------12----12--------12----12----------12---12--------12----12-------------12--||----------------------------------------------------------------------------------------|
Guitar riff seven|----------------------------------------------------------||--------------13-------------15-------11---------13-------||--14-14-14-14----14-14-14-14----14-14-----14-14-----------||----------------------------------------------------------| x2|----------------------------------------------------------||----------------------------------------------------------|
Guitar riff six|----------------------------------------------------------------------------------------||----------------------------------------------------------------------------------------||------------------------------------------------------------------------15-15-14-14-----||--14---14h-15----14----14h-17----14----14h-15-12---14---14h-15----14------------------15||-----12-------12----12--------12----12----------12---12--------12----12-------------12--||----------------------------------------------------------------------------------------|
I WILL UPLOAD THE GUITAR SOLO SOON .......
Tap to rate this tab
 
# A B C D E F G H I J K L M N O P Q R S T U V W X Y Z