Deadstar Assembly - Dejected tab

================================================================
                         Dejected

                     Deadstar Assembly

================================================================

               Tabbed by:  John Moores
                mooresjw@email.uc.edu
~~~~~~~~~~~~~~~~~~~~~~~~~~~~~~~~~~~~~~~~~~~~~~~~~~~~~~~~~~~~~~~~

Tuning: Drop C (CGCFAD)

* = Palm Mute
@ = Pinched harmonic
x = muted


Intro Riff
0:00

|-----------------------------------------------||-----------------------------------------------||-----------------------------------------------||--0-0--------8\----0-0--------7\---------------||--0-0--0-00--8\----0-0--0-00--7\---------------||--0-0--0-00--8\----0-0--0-00--7\---------------|
|-----------------------------------------------||-----------------------------------------------||-----------------------------------------------||--0-0--------8\----0-0-------------------------||--0-0--0-00--8\----0-0--0-3-5-5-3-5-3-5-5-3-0--||--0-0--0-00--8\----0-0--0-3-5-5-3-5-3-5-5-3-0--| * * * * * * * * * *
Verse 1 0:09
|----------------------------| |----------------||----------------------------| |----------------||----------------------------| |----------------||--7-----7-----7-----3/6-----| x3 |----------------||--5-----5-----5-----3/6-----| |-6-6-6-6--6-5-5-||--0-0-0-0-0-0-0-0-0-3/6-----| |-6-6-6-6--6-5-5-| * * * * * *
Repeat verse pattern 1 more time Pre-chorus 0:28
|-------------------------------------------------------||-------------------------------------------------------||-------------------------------------------------------||-------3-0-0----3---/6-6-5--------3-0-0----3---/8-8-5--||-------3-0-0--0-3-0-/6-6-5--------3-0-0--0-3-0-/8-8-5--||--0000-3-0-0--0-3-0-/6-6-5---0000-3-0-0--0-3-0-/8-8-5--| **** ****
|-------------------------------------------------------||-------------------------------------------------------||-------------------------------------------------------||-------3-0-0----3---/6-6-5--------3-0-0~---8---10------||-------3-0-0--0-3-0-/6-6-5--------3-0-0~---8---10------||--0000-3-0-0--0-3-0-/6-6-5---0000-3-0-0~---8---10------| **** ****
Chorus 0:48
|--------------------------------------------------------||--------------------------------------------------------||--------------------------------------------------------||--0-0---------8--8--8--8---3-3---------5-------6--5--3--| x2|--0-0--0-0-0--8--8--8--8---3-3--3-3-3--5--5-5--6--5--3--||--0-0--0-0-0--8--8--8--8---3-3--3-3-3--5--5-5--6--5--3--|
Intro Riff 1:08
|-----------------------------------------------||-----------------------------------------------||-----------------------------------------------||--0-0--------8\----0-0--------7\---------------||--0-0--0-00--8\----0-0--0-00--7\---------------||--0-0--0-00--8\----0-0--0-00--7\---------------|
|-----------------------------------------------||-----------------------------------------------||-----------------------------------------------||--0-0--------8\----0-0-------------------------||--0-0--0-00--8\----0-0--0-3-5-5-3-5-3-5-5-3-0--||--0-0--0-00--8\----0-0--0-3-5-5-3-5-3-5-5-3-0--| * * * * * * * * * *
Verse 2 1:16
|----------------------------| |----------------||----------------------------| |----------------||----------------------------| |----------------||--7-----7-----7-----3/6-----| x3 |----------------||--5-----5-----5-----3/6-----| |-6-6-6-6--6-5-5-||--0-0-0-0-0-0-0-0-0-3/6-----| |-6-6-6-6--6-5-5-| * * * * * *
Repeat verse pattern 1 more time Pre-chorus 1:35
|-------------------------------------------------------||-------------------------------------------------------||-------------------------------------------------------||-------3-0-0----3---/6-6-5--------3-0-0----3---/8-8-5--||-------3-0-0--0-3-0-/6-6-5--------3-0-0--0-3-0-/8-8-5--||--0000-3-0-0--0-3-0-/6-6-5---0000-3-0-0--0-3-0-/8-8-5--| **** ****
|-------------------------------------------------------||-------------------------------------------------------||-------------------------------------------------------||-------3-0-0----3---/6-6-5--------3-0-0~---8---10------||-------3-0-0--0-3-0-/6-6-5--------3-0-0~---8---10------||--0000-3-0-0--0-3-0-/6-6-5---0000-3-0-0~---8---10------| **** ****
Chorus 1:55
|--------------------------------------------------------||--------------------------------------------------------||--------------------------------------------------------||--0-0---------8--8--8--8---3-3-3-------5-------6--5--3--| x4|--0-0--0-0-0--8--8--8--8---3-3-3--3-3--5--5-5--6--5--3--||--0-0--0-0-0--8--8--8--8---3-3-3--3-3--5--5-5--6--5--3--|
Pre-chorus Revisit 2:33
|-------------------------------------------------------||-------------------------------------------------------||-------------------------------------------------------||-------3-0-0----3---/6-6-5--------3-0-0~---8---10------||-------3-0-0--0-3-0-/6-6-5--------3-0-0~---8---10------||--0000-3-0-0--0-3-0-/6-6-5---0000-3-0-0~---8---10------| **** ****
Chorus 2:43
|--------------------------------------------------------||--------------------------------------------------------||--------------------------------------------------------||--0-0---------8--8--8--8---3-3-3-------5-------6--5--3--| x4|--0-0--0-0-0--8--8--8--8---3-3-3--3-3--5--5-5--6--5--3--||--0-0--0-0-0--8--8--8--8---3-3-3--3-3--5--5-5--6--5--3--|
Intro Riff 3:22
|-----------------------------------------------||-----------------------------------------------||-----------------------------------------------||--0-0--------8\----0-0--------7\---------------||--0-0--0-00--8\----0-0--0-00--7\---------------||--0-0--0-00--8\----0-0--0-00--7\---------------|
|-------------------------------------------------||-------------------------------------------------||-------------------------------------------------||--0-0--------8\----0-0---------------------------||--0-0--0-00--8\----0-0--0-3-5-5-3-0~-------------||--0-0--0-00--8\----0-0--0-3-5-5-3-0~-------------| * * * * *
Comments and ratings appreciated!
Tap to rate this tab
 
# A B C D E F G H I J K L M N O P Q R S T U V W X Y Z