Deaf Havana – Nicotine And Alcohol Saved My Life tab ver. 6

Nicotine and Alcohol Saved My Life


Intro

Both Guitars

-----------------------------------------------------|-----------------------------------------------------|--12---------9-----------7--7--7----7-7-7----7-7-7---|--11-(x16)---11-(x16)----7--7--7----7-7-7----7-7-7---|--9----------7-----------5--5--5----5-5-5----5-5-5---|--9----------7-----------5--5--5----5-5-5----5-5-5---|
Pre Verse Guitar 1
---------------------------------|---------------------------------|--11---------9----------7--------|--12-(x16)---11-(x16)---7-(x32)--| x2--9----------7----------5--------|--9----------7----------5--------|
Guitar 2
--10-10-10-9-9-9----------------------------------|----------------------------------10-10-10--------|-----------------11(x10)--11-11-11----------------|-------------------------------------------9(x10--|--------------------------------------------------|--------------------------------------------------|
--10-10-10-9-9-9-----------------------------------|----------------------------------10-10-10--12(x10-|-----------------11(x9)-9-11-11-11-----------------|---------------------------------------------------|---------------------------------------------------|---------------------------------------------------|
--10-10-10-9-9-9----------------------------------|-----------------------------------10-10-10-------|-----------------11(x10)-9-11-11-11---------------|--------------------------------------------9(x10-|--------------------------------------------------|--------------------------------------------------|
--10-10-10-9-9-9------------------------------------9-9-9-10-10-12-12-14-|----------------------------------10-10-10-12-12-12----------------------|-----------------11(x9)-9-11-11-11---------------------------------------|-------------------------------------------------------------------------|-------------------------------------------------------------------------|-------------------------------------------------------------------------|
Verse Both Guitars
---------------------------------|---------------------------------|--11---------9----------7--------|--12-(x8)----11-(x8)----7-(x16)--| x2--9----------7----------5--------|--9----------7----------5--------|
---------------------------------|---------------------------------|--11---------9----------7--------|--12-(x16)---11-(x16)---7-(x32)--| x2--9----------7----------5--------|--9----------7----------5--------|
Chorus Guitar 1
---------------------------------|---------------------------------|--11---------9----------7--------|--12-(x16)---11-(x16)---7-(x32)--| x2--9----------7----------5--------|--9----------7----------5--------|
Guitar 2
--10-10-10-9-9-9----------------------------------|----------------------------------10-10-10--------|-----------------11(x10)--11-11-11----------------|-------------------------------------------9(x10--|--------------------------------------------------|--------------------------------------------------|
--10-10-10-9-9-9-----------------------------------|----------------------------------10-10-10--12(x10-|-----------------11(x9)-9-11-11-11-----------------|---------------------------------------------------|---------------------------------------------------|---------------------------------------------------|
--10-10-10-9-9-9----------------------------------|-----------------------------------10-10-10-------|-----------------11(x10)-9-11-11-11---------------|--------------------------------------------9(x10-|--------------------------------------------------|--------------------------------------------------|
--10-10-10-9-9-9------------------------------------9-9-9-10-|----------------------------------10-10-10-12-12-12----------|-----------------11(x9)-9-11-11-11---------------------------|-------------------------------------------------------------|-------------------------------------------------------------|-------------------------------------------------------------|
Chorus 2 Guitar 1
---------------------------------|---------------------------------|--9----------11---------7--------|--11-(x16)---12-(x16)---7-(x32)--| x2--7----------9----------5--------|--7----------9----------5--------|
Guitar 2
----------------------------------------------------------|----------------------------------------------------------|--16-----14-----11-----16--14--7--7------16--14--7--7-----|-(x12)--(x4)---(x8)----xx--xx--x--x(x6)--xx--xx--x--x(x14-|--14-----12-----9------14--12--5--5------14--12--5--5-----|----------------------------------------------------------|
------------------------------------------------------------|------------------------------------------------------------|--14----16--14--11-11----16--14--7--7------16--14--7--7-----|-(x8)---xx--xx--x--x(x6)-xx--xx--x--x-(x6)-xx--xx--x--x(x14-|--12----14--12--9--9-----14--12--5--5------14--12--5--5-----|------------------------------------------------------------|
Pre Chorus 2 Guitar 1
---------------------------------|---------------------------------|--11---------9----------7--------|--12-(x16)---11-(x16)---7-(x32)--| x2--9----------7----------5--------|--9----------7----------5--------|
Guitar 2
--10-10-10-9-9-9-------9(x8)---------------------------|-----------------10-10----------------10-10-10---------|------------------------------11-9-11------------------|------------------------------------------------9(x10--|-------------------------------------------------------|-------------------------------------------------------|
--10-10-10-9-9-9-------9(x8)----------------------------9-9-9-10-|-----------------10-10----------------10-10-10-12-12-12----------|-----------------------------11-11-11----------------------------|-----------------------------------------------------------------|-----------------------------------------------------------------|-----------------------------------------------------------------|
--10-10-10-9-9-9-------9(x8)---------------------------|-----------------10-10----------------10-10-10---------|------------------------------11-9-11------------------|------------------------------------------------9(x10--|-------------------------------------------------------|-------------------------------------------------------|
--10-10-10-9-9-9-------9(x8)----------------------------9-9-9-10-|-----------------10-10----------------10-10-10-12-12-12----------|-----------------------------11-11-11----------------------------|-----------------------------------------------------------------|-----------------------------------------------------------------|-----------------------------------------------------------------|
Chorus 2 Guitar 1
---------------------------------|---------------------------------|--9----------11---------7--------|--11-(x16)---12-(x16)---7-(x32)--| x2--7----------9----------5--------|--7----------9----------5--------|
Guitar 2
----------------------------------------------------------|----------------------------------------------------------|--16-----14-----11-----16--14--7--7------16--14--7--7-----|-(x12)--(x4)---(x8)----xx--xx--x--x(x6)--xx--xx--x--x(x14-|--14-----12-----9------14--12--5--5------14--12--5--5-----|----------------------------------------------------------|
------------------------------------------------------------|------------------------------------------------------------|--14----16--14--11-11----16--14--7--7------16--14--7--7-----|-(x8)---xx--xx--x--x(x6)-xx--xx--x--x-(x6)-xx--xx--x--x(x14-|--12----14--12--9--9-----14--12--5--5------14--12--5--5-----|------------------------------------------------------------|
Ending Guitar 1
--------------------------------------|--------------------------------------|--9-----11-11-11---7--7--7----7--7--7-|--11----12-12-12---7--7--7----7--7--7-| x2--7-----9--9--9----5--5--5----5--5--5-|--7-----9--9--9----5--5--5----5--5--5-|
---------------------------------|---------------------------------|--9----------11---------7--------|--11-(x16)---12-(x16)---7-(x32)--| x2--7----------9----------5--------|--7----------9----------5--------|
Guitar 2
---------------------------------|---------------------------------|---------------------------------|---------------------------------| x4---------------------------------|--7(x16)--9(x16)--5(x32)---------|
Please rate this tab:
x1.0