Deaf Havana – The World Or Nothing tab ver. 2

The World or Nothing by Deaf Havana
Standard Tuning (E-A-D-G-B-E)

Intro (0:00-0:31)

(These harmonics to begin with)|----------------|--------|---------------------------||-(7)---------X2-|--------|---------------------------| x4|----------------|--------|---------------------------||-----(7)--------|-0-X16--|--0-X16---0-X8---0-X8------||---------(9)----|-5------|-10-------2------5---------||----------------|--------|---------------------------|
Bridge(0:32-0:45)
|------------------------------------------||-3-3-3-3-3-3-3-3-3-3-3-3-3-3-3-3-3--------||-6/7-7-7-7-7-7-7-7-7/6-6-6-6/2-2-2--------||------------------------------------------||------------------------------------------||------------------------------------------|
|------------------------------------------||-3-3-3-3-3-3-3/5-5/7-7-7-7-7-7-7----------||-6/7-7-7-7-7-7-7-7-7-7-7-7-7-7-7----------||------------------------------------------||------------------------------------------||------------------------------------------| You play the bridge part x2 (two times)
Verse (0:46-0:58)
|--------------7-7—-5-5------------------------------------||-------------------------------------7--5-7-5—-3—-5-3-2-3-| x2|-7--6-7-6-7-------------7--6-7-6-7------------------------||----------------------------------------------------------||----------------------------------------------------------||----------------------------------------------------------|
Bridge(0:59-1:10)
|-----------------------------------------||-3-3-3-3-3-3-3-3-3-3-3-3-3/5-5-----------||-6/7-7-7-7-7-7-7-7-7-7-7-7-7-7-----------||-----------------------------------------||-----------------------------------------||-----------------------------------------|
|-----------------------------------------||-3-3-3-3-3-3-3-3-3-3-3-3-3-3-3-3-3-3-3-3-||-6/7-7-7-7-7-7-7-7-7-7-7-7/6-6-6-6/2-2-2-||-----------------------------------------||-----------------------------------------||-----------------------------------------|
|-----------------------------------------||-3-3-3-3-3-3-3-3-3-3-3-3-3/5-5-----------||-6/7-7-7-7-7-7-7-7-7-7-7-7-7-7-----------||-----------------------------------------||-----------------------------------------||-----------------------------------------|
|-----------------------------------------||-3-3-3-3-3-3-3-3/7-7-7-7-7-7-7-----------||-6/7-7-7-7-7-7-7-7-7-7-7-7-7-7-----------||-----------------------------------------||-----------------------------------------||-----------------------------------------|
Chorus(1:11-1:35)
|-3------5------2-----2-------------------||-3-x8---5-x8---2-x8--3-x8----------------| x4|-4------6------4-----4-------------------||-5------7------4-----4-------------------||-5------7------2-----2-------------------||-3------5--------------------------------|
Bridge(1:36-1:49)
|------------------------------------------||-3-3-3-3-3-3-3-3-3-3-3-3-3-3-3-3-3--------||-6/7-7-7-7-7-7-7-7-7/6-6-6-6/2-2-2--------||------------------------------------------||------------------------------------------||------------------------------------------|
|------------------------------------------||-3-3-3-3-3-3-3/5-5/7-7-7-7-7-7-7----------||-6/7-7-7-7-7-7-7-7-7-7-7-7-7-7-7----------||------------------------------------------||------------------------------------------||------------------------------------------| You play this part x2 (two times)
Verse(1:50-2:01)
|------------------------------------------||------------------------------------------||-6--6-6--7--7-7--------6—-6-6--7----------||-----------------5------------------------||------------------------------------------||------------------------------------------|
Build-up(2:02-2:07)
|---------------------------------------------------------||-0-0-0-0-0-0-0-0-2-2-2-2-2-2-2-2-2-2-2-2-2-2-2-2-3-3-3-3-||-2-2-2-2-2-2-2-2-2-2-2-2-2-2-2-2-4-4-4-4-4-4-4-4-4-4-4-4-||---------------------------------------------------------||---------------------------------------------------------||---------------------------------------------------------|
Solo(2:08-2:20)
|-5-3------------------------------9-5-5-5-5-5------------||-----5-7--5—7-7-8-(20)------2-3--10-7-7-7-7-7------||---------------------------------------------------------||---------------------------------------------------------||---------------------------------------------------------||---------------------------------------------------------| At the 8th fret, with the (20) behind it, you tap the string between fret 20 and fret 21 to get the harmonic sound! ☺
|-7-5---9--10-10------12-12-10-10-9-15-15-14-14-7-----||-7-7--10--12-12--------------------------------------||-----------------------------------------------------||-----------------------------------------------------||-----------------------------------------------------||-----------------------------------------------------|
|-5--7--9--10--||--------------||--------------||--------------|
Chorus-part(2:21-2:33)
|-3------5------2-----2-------------------||-3-x8---5-x8---2-x8--3-x8----------------| x2|-4------6------4-----4-------------------||-5------7------4-----4-------------------||-5------7------2-----2-------------------||-3------5--------------------------------| This time, only x2.
Bridge(2:34-2:58)
|--------------------| |-----------------------------||--------------------|x2 |-3-x12--5-x4---7-x12---10-x4-||-4-x12--6-x4--7-x16-| |-4------6------7-------11----||--------------------| |-----------------------------||--------------------| |-----------------------------||--------------------| |-----------------------------|
Chorus(2:59-3:24)
This chorus is a bit different than the other ones.|-3------5------2-----2-------------------||-3-x12--5-x4---2-x8--3-x8----------------| x4|-4------6------4-----4-------------------||-5------7------4-----4-------------------||-5------7------2-----2-------------------||-3------5--------------------------------|
Outro(3:25-3:37)
|-----------------------------|----------------||-3-x12--5-x4---7-x12---10-x4-|-3-x12--5-x4--7-||-4------6------7-------11----|-4------6-----7-||-----------------------------|----------------||-----------------------------|----------------||-----------------------------|----------------|
Made by Stianerdal
Please rate this tab:
x1.0