Death Before Dishonor - Born From Misery tab

  Gtrs I, II
       PM----------|        PM----------|
 
|--------------------|--------------------||--------------------|--------------------||--------------------|--------------------||-5s7----------------|-5s7----------------||-3s5--0-0-0-0-0-0-0-|-3s5--0-0-0-0-0-0-0-||------0-0-0-0-0-0-0-|------0-0-0-0-0-0-0-|
PM----------| PM PM
|--------------------|----------------||--------------------|----------------||--------------------|----------------||-5s7----------------|-8-8----5-5-----||-3s5--0-0-0-0-0-0-0-|-8-8--0-5-5--0--||------0-0-0-0-0-0-0-|-8-8--0-5-5--0--|
PM----------| PM----------|
|--------------------|--------------------||--------------------|--------------------||--------------------|--------------------||-5s7----------------|-5s7----------------||-3s5--0-0-0-0-0-0-0-|-3s5--0-0-0-0-0-0-0-||------0-0-0-0-0-0-0-|------0-0-0-0-0-0-0-|
PM----------| PM------|
|--------------------|-------------------||--------------------|-------------------||--------------------|-------------------||-5s7----------------|-8-8---------------||-3s5--0-0-0-0-0-0-0-|-8-8----5-5-5-5-5--||------0-0-0-0-0-0-0-|-8-8----5-5-5-5-5--|
PM----------| PM----------|
|--------------------|--------------------||--------------------|--------------------||--------------------|--------------------||-5s7----------------|-5s7----------------||-3s5--0-0-0-0-0-0-0-|-3s5--0-0-0-0-0-0-0-||------0-0-0-0-0-0-0-|------0-0-0-0-0-0-0-|
PM----------------------------|
|--------------------|-----------------||--------------------|-----------------||--------------------|-----------------||-5s7----------------|-----------------||-3s5--0-0-0-0-0-0-0-|-8-8-8-0-5-5-5-0-||------0-0-0-0-0-0-0-|-8-8-8-0-5-5-5-0-|
PM----------| PM----------| PM----------| PM----|
|--------------------|--------------------|--------------------|--------------||--------------------|--------------------|--------------------|--------------||--------------------|--------------------|--------------------|--------------||-5s7----------------|-5s7----------------|-5s7----------------|-8------------||-3s5--0-0-0-0-0-0-0-|-3s5--0-0-0-0-0-0-0-|-3s5--0-0-0-0-0-0-0-|-8----3-5-3-0-||------0-0-0-0-0-0-0-|------0-0-0-0-0-0-0-|------0-0-0-0-0-0-0-|-8----3-5-3-0-|
|----------|-------------------||----------|-------------------||----------|-------------------||-5--------|-(5)---------------||-5--------|-(5)---------------||-5--------|-(5)-5-3-5-6-5-3-0-|
PM--------| PM------------------------|
||-----------------------|-------------------------------|||o----------------------|-------------------------------|||-----------------------|-------------------------------|||--7-------------7-7--5-|-7-----------------------------|||o-5-0-0-0-0-0-0-5-5--3-|-5-0-0-0-0-0-0-0-0-0-0-0-0-0-0-|||----0-0-0-0-0-0--------|---0-0-0-0-0-0-0-0-0-0-0-0-0-0-|
PM PM PM PM
|---------------|---------------||---------------|---------------||---------------|---------------||-8-8----5-5----|-5-5----5-5----||-8-8--0-5-5--0-|-3-3--0-5-5--0-||-8-8--0-5-5--0-|------0-5-5--0-|
1. PM--------| PM------------------------|
|----------------------|-------------------------------||----------------------|-------------------------------||----------------------|-------------------------------||-7-------------7-7--5-|-7-----------------------------||-5-0-0-0-0-0-0-5-5--3-|-5-0-0-0-0-0-0-0-0-0-0-0-0-0-0-||---0-0-0-0-0-0--------|---0-0-0-0-0-0-0-0-0-0-0-0-0-0-|
PM PM PM
|---------------|-----------------|||---------------|----------------o|||---------------|-----------------|||-8-8----5-5----|-5-5----6--5-0---|||-8-8--0-5-5--0-|-3-3--0-6--5-0--o|||-8-8--0-5-5--0-|------0-6--5-0---||
2. PM--------| PM------------------------|
|----------------------|-------------------------------||----------------------|-------------------------------||----------------------|-------------------------------||-7-------------7-7--5-|-7-----------------------------||-5-0-0-0-0-0-0-5-5--3-|-5-0-0-0-0-0-0-0-0-0-0-0-0-0-0-||---0-0-0-0-0-0--------|---0-0-0-0-0-0-0-0-0-0-0-0-0-0-|
PM PM PM---|
|---------------|---------------||---------------|---------------||---------------|---------------||-8-8----5-5----|-5-5-----------||-8-8--0-5-5--0-|-3-3--0-1--1---||-8-8--0-5-5--0-|------0-1--1---|
Q=150 PM| PM|
||-----------|------------|------------|---------------|||o----------|------------|------------|---------------|||-----------|------------|------------|---------------|||--0--------|-(0)--------|-(0)--------|-----5------8--|||o-0--------|-(0)--------|-(0)--------|-0-0-3--0-0-6--|||--0--------|-(0)--------|-(0)--------|-0-0----0-0----|
1. PM| PM|
|----------|------------|------------|---------------|||----------|------------|------------|--------------o|||----------|------------|------------|---------------|||-0--------|-(0)--------|-(0)--------|---------------|||-0--------|-(0)--------|-(0)--------|-0-0-3--0-0-1-o|||-0--------|-(0)--------|-(0)--------|-0-0-3--0-0-1--||
2. PM-------------------| PM-| PM
|---------------------------|-------------------------||---------------------------|-------------------------||---------------------------|-------------------------||-12\-----------------------|----3---------3-----3s=5-||-12\----0--0---0--0--0--0--|-0--1--0--0---1--0--1s=3-||-12\----0--0---0--0--0--0--|-0-----0--0------0-------|
PM----------|
||-------------------|---------------|----------------|---------------------||||o------------------|---------------|----------------|--------------------o||||-------------------|---------------|----------------|---------------------||||--7-7-7-10--10-10--|-5-5-5-1--1-1--|-3-3-3-5--5-5-7-|-(7)\----------------||||o-5-5-5--8---8--8--|-3-3-3-1--1-1--|-1-1-1-3--3-3-5-|-(5)\-0-0-0-0-0-0-0-o||||-------------------|-------1--1-1--|----------------|------0-0-0-0-0-0-0--||
PM| PM|
|----------|------------|------------|--------------||----------|------------|------------|--------------||----------|------------|------------|--------------||-0--------|-(0)--------|-(0)--------|-----5------8-||-0--------|-(0)--------|-(0)--------|-0-0-3--0-0-6-||-0--------|-(0)--------|-(0)--------|-0-0----0-0---|
Gtr I PM| PM|
|----------|---------------------|--------------|--------------||----------|---------------------|--------------|--------------||----------|----------------<5>--|-(<5>)--------|--------------||-0--------|-(0)----<5>----------|--------------|-----5--------||-0--------|-(0)--------<5>------|--------------|-0-0-3--0-0-3-||-0--------|-(0)-----------------|--------------|-0-0----0-0-3-|
| | Gtr II | PM| PM| |
|----------|---------------------|--------------|--------------||----------|---------------------|--------------|--------------||----------|---------------------|--------------|--------------||-0--------|-(0)-----------------|--(0)---------|-----5--------||-0--------|-(0)-----------------|--(0)---------|-0-0-3--0-0-3-||-0--------|-(0)-----------------|--(0)---------|-0-0----0-0-3-|
PM------------------------------------------------------------| PM|
|---------------|---------------------|---------------------|-----------------||---------------|---------------------|---------------------|-----------------||---------------|---------------------|---------------------|-----------------||---------------|---------------------|---------------------|-----5-----------||-0--0--0--0--0-|-(0)-0-0-0-0-0--0--0-|-(0)-0-0-0-0-0--0--0-|-0-0-3--0-0-3----||-0--0--0--0--0-|-(0)-0-0-0-0-0--0--0-|-(0)-0-0-0-0-0--0--0-|-0-0----0-0-3----|
|---------------|---------------------||---------------|---------------------||---------------|---------------------||---------------|---------------------||-0--0--0--0--0-|-(0)-0-0-0-0-0--0--0-||-0--0--0--0--0-|-(0)-0-0-0-0-0--0--0-|
PM----------------| PM|
|-----------------|---------------|----------*||-----------------|---------------|----------*||-----------------|---------------|----------*||-7---------------|-----5---------|-0--------*||-5-0-0-0-0-0-0-0-|-0-0-3--0-0-3--|-0--------*||---0-0-0-0-0-0-0-|-0-0----0-0-3--|-0--------*|
Tap to rate this tab
 
# A B C D E F G H I J K L M N O P Q R S T U V W X Y Z