Death Cab For Cutie – I Will Follow You Into The Dark tab ver. 2

E||------------------------------|--------------------------------|B||-------6-------------6--------|-------6--------------6-------6-|G||----------7---7---------5---5-|----------7---7-----5-------5---|D||-----7------7------7------7---|------------8-----7-------5-----|A||--5-------------8-------------|-----8----------8-------7-------|E||------------------------------|--6-----------------------------|
------------------------------|------------------------------|-------6-------------6--------|-------8-------------8--------|----------7---7---------5---5-|----------5-------------5-----|-----7------7------7------7---|------------5-------------5---|--5-------------8-------------|-----7--------7----7--------7-|------------------------------|--8-------------8-------------|
------------------------------|--------------------------------|-------6-------------6--------|----------------------6-------6-|----------7---7---------5---5-|-------6------------7-------5---|-----7------7------7------7---|----------7---7---7-------5-----|--5-------------8-------------|-----2------7---5---------------|------------------------------|--5---------------------8-------|
-----------------------------|------------------------------|-------6--------6------------|-------6-------------6--------|----------7---7-6------6-----|----------5---5---------5---5-|------------8---8---8----8---|-----7------7------7------7---|-----8----------8----------8-|--8-------------8-------------|--6-------------6------------|------------------------------|
|-------------------------------|------------------------------||--------6-------------6--------|-------6-------------6--------||*----------5---5---------5---5-|----------7---7---------7---7-||*-----7------7------7------7---|-----7------7------7------7---||---8-------------8-------------|--5-------------5-------------||-------------------------------|------------------------------|
------------------------------|-------------------------------||-------6-------------6--------|-------6-------------8---------||----------7---7---------7---7-|----------5---5---------5-----*||------------8-------------8---|-----7------7-------------5---*||-----8-------------8----------|--8----------------7--------7--||--6-------------6-------------|----------------8--------------||
------------------------------|--------------------------------|-------6-------------6--------|-------6--------------6-------6-|----------7---7---------5---5-|----------7---7-----5-------5---|-----7------7------7------7---|------------8-----7-------5-----|--5-------------8-------------|-----8----------8-------7-------|------------------------------|--6-----------------------------|
------------------------------|------------------------------|-------6-------------6--------|-------8-------------8--------|----------7---7---------5---5-|----------5-------------5-----|-----7------7------7------7---|------------5-------------5---|--5-------------8-------------|-----7--------7----7--------7-|------------------------------|--8-------------8-------------|
------------------------------|--------------------------------|-------6-------------6--------|----------------------6-------6-|----------7---7---------5---5-|-------6------------7-------5---|-----7------7------7------7---|----------7---7---7-------5-----|--5-------------8-------------|-----7------7---5---------------|------------------------------|--5---------------------8-------|
------------------------------|------------------------------|-------6--------6----6--------|-------6-------------6--------|----------7---7-6-------6-----|----------5---5---------5---5-|------------8---8--8------8---|-----7------7------7------7---|-----8----------8-----------8-|--8-------------8-------------|--6-------------6-------------|------------------------------|
Capo 5 |-------------------------------|------------------------------||--------1-------------1--------|-------1-------------1--------||*----------0---0---------0---0-|----------2---2---------2---2-||*-----2------2------2------2---|-----2------2------2------2---||---3-------------3-------------|--0-------------0-------------||-------------------------------|------------------------------|
------------------------------|-------------------------------||-------1-------------1--------|-------1-------------3---------||----------2---2---------2---2-|----------0---0---------0-----*||------------3-------------3---|-----2------2-------------0---*||-----3-------------3----------|--3----------------2--------2--||--1-------------1-------------|----------------3--------------||
------------------------------|--------------------------------|-------1-------------1--------|-------1--------------1-------1-|----------2---2---------0---0-|----------2---2-----0-------0---|-----2------2------2------2---|------------3-----2-------0-----|--0-------------3-------------|-----3----------3-------2-------|------------------------------|--1-----------------------------|
------------------------------|------------------------------|-------1-------------1--------|-------3-------------3--------|----------2---2---------0---0-|----------0-------------0-----|-----2------2------2------2---|------------0-------------0---|--0-------------3-------------|-----2--------2----2--------2-|------------------------------|--3-------------3-------------|
------------------------------|--------------------------------|-------1-------------1--------|----------------------1-------1-|----------2---2---------0---0-|-------1------------2-------0---|-----2------2------2------2---|----------2---2---2-------0-----|--0-------------3-------------|-----2------2---0---------------|------------------------------|--0---------------------3-------|
------------------------------|------------------------------|-------1--------1----1--------|-------1-------------1--------|----------2---2-1-------1-----|----------0---0---------0---0-|------------3---3--3------3---|-----2------2------2------2---|-----3----------3-----------3-|--3-------------3-------------|--1-------------1-------------|------------------------------|
|-------------------------------|------------------------------||--------1-------------1--------|-------1-------------1--------||*----------0---0---------0---0-|----------2---2---------2---2-||*-----2------2------2------2---|-----2------2------2------2---||---3-------------3-------------|--0-------------0-------------||-------------------------------|------------------------------|
------------------------------|-------------------------------||-------1-------------1--------|-------1-------------3---------||----------2---2---------2---2-|----------0---0---------0-----*||------------3-------------3---|-----2------2-------------0---*||-----3-------------3----------|--3----------------2--------2--||--1-------------1-------------|----------------3--------------||
------------------------------|------------------------------|-------1-------------1--------|-------1-------------1--------|----------1---1---------1---1-|----------1---1---------1---1-|------------3-------------3---|------------3-------------3---|-----3-------------3----------|-----3-------------3----------|--1-------------1-------------|--1-------------1-------------|
------------------------------|--------------------------------|-------1-------------1--------|-------1--------------1-------1-|----------2---2---------0---0-|----------2---2-----0-------0---|-----2------2------2------2---|------------3-----2-------0-----|--0-------------3-------------|-----3----------3-------2-------|------------------------------|--1-----------------------------|
------------------------------|------------------------------|-------1-------------1--------|-------3-------------3--------|----------2---2---------0---0-|----------0-------------0-----|-----2------2------2------2---|------------0-------------0---|--0-------------3-------------|-----2--------2----2--------2-|------------------------------|--3-------------3-------------|
------------------------------|--------------------------------|-------1-------------1--------|----------------------1-------1-|----------2---2---------0---0-|-------1------------2-------0---|-----2------2------2------2---|----------2---2---2-------0-----|--0-------------3-------------|-----2------2---0---------------|------------------------------|--0---------------------3-------|
------------------------------|------------------------------|-------1--------1----1--------|-------1-------------1--------|----------2---2-1-------1-----|----------0---0---------0---0-|------------3---3--3------3---|-----2------2------2------2---|-----3----------3-----------3-|--3-------------3-------------|--1-------------1-------------|------------------------------|
--------------------|-------------------||--1--------1--------|--1----------------||--2--------1--------|--0----------------||--3--------3--------|--2----------------||--3--------3--------|--3----------------||--1--------1--------|-------------------||
Please rate this tab:
x1.0