Deathspell Omega – Carnal Malefactor tab

Tuning: E

Riff A
Play 4 times

|-------------------------------------------------||-------------------------------------------------||-------------------------------------------------||-9-h10-10-10-10-10-10-10-9-h10-10-10-10-10-10-10-||-0-----0--0--0--0--0--0--0-----0--0--0--0--0--0--||-------------------------------------------------|
|------------------------------------------||------------------------------------------||------------------------------------------||-14-h15-15-15-15-15-14-12-9-9-9-9-9-9-9-9-||-0---0--0--0--0--0--0--0--0-0-0-0-0-0-0-0-||------------------------------------------|
|----------------------------------------------------||----------------------------------------------------||----------------------------------------------------||-12-12-12-12-12-12-12-12-14-14-14-14-14-14-14-14-14-||-0--0--0--0--0--0--0--0--0--0--0--0--0--0--0--0--0--||----------------------------------------------------|
|-----------------------------------------||-----------------------------------------||-----------------------------------------||-10-10-10-10-10-10-12-10-9-9-9-9-9-9-9-9-||-0--0--0--0--0--0--0--0--0-0-0-0-0-0-0-0-||-----------------------------------------|
Riff B Play 4 times
|-----------------------------------------||-----------------------------------------||-----------------------------------------||-7-7-7-7-7-7-7-7-10-10-10-10-10-10-10-10-||-0-0-0-0-0-0-0-0-0--0--0--0--0--0--0--0--||-----------------------------------------|
|-------------------------------||-------------------------------||-------------------------------||-12-12-12-12-12-12-9-9-10-10-9-||-0--0--0--0--0--0--0-0-0--0--0-||-------------------------------|
|----------------------------------||----------------------------------||----------------------------------||-7-7-7-7-7-7-5-5-5-5-5-5-10-10-10-||-0-0-0-0-0-0-0-0-0-0-0-0-0--0--0--||----------------------------------|
|--------------------------------||--------------------------------||--------------------------------||-12-12-12-12-12-12-10-10-9-9-10-||-0--0--0--0--0--0--0--0--0-0-0--||--------------------------------|
Riff C Play 4 times
|-----------------------------------8-8-8-8-||-------------------------------------------||--------9-9-9-9-7--------------------------||-7-9-10-----------10-9-9-9-9-10-12---------||-------------------------------------------||-------------------------------------------|
|-7-7-----------------------------------------------||-----10------------------10-10---------8-8---------||--------9-9-9-9----------------9-9-9-9-----9-9-9-9-||----------------10-10-10---------------------------||---------------------------------------------------||---------------------------------------------------|
After fouth time:|------||------||-2----||-2----||-0----||------|
Please rate this tab:
x1.0