Deathstars - Death In Vogue tab

=================================================================================

			Death in Vogue
=================================================================================

By:  Deathstars
Album: Termination Bliss

Tabbed by: John Moores
mooresjw@email.uc.edu

Drop C Tuning (CGCFAD)

* = Palm Mute
@ = Pinched harmonic
x = muted


Intro.

0:09

|-------------------------------------------------------||-------------------------------------------------------||-------------------------------------------------------||------5---7-------------5---7----8---7---0-------------||------3---5-------------3---5----8---7---0-------------||----------0-----------------0----8---7---0-------------|
0:24
|----------------------------------------------------------------------||----------------------------------------------------------------------||----------------------------------------------------------------------||----------------------------------------------------------------------| x2|-----\-0-0-----0----0--0-0-0---0--0----8-8--8--8-----5-5---5--5-------||-----\-0-0-----0----0--0-0-0---0--0----8-8--8--8-----5-5---5--5---3@--|
Verse 1 0:38
|--------------------------------------------------||--------------------------------------------------||--------------------------------------------------||--------------------------------------------------| x2|----0-0-------------------------------------------||----0-0-------------------------------------------|
0:53
|-----------------------------------------------------------------------||-----------------------------------------------------------------------||-----------------------------------------------------------------------||-----------------------------------------------------------------------| x2|-----\-0-0-----0----0--0-0-0---0--0----8-8--8--8-----5-5---5--5--------||-----\-0-0-----0----0--0-0-0---0--0----8-8--8--8-----5-5---5--5---3@---|
Verse 2 1:06
|--------------------------------------------------||--------------------------------------------------||--------------------------------------------------||--------------------------------------------------| x2|----0-0----------8-8------------------------------||----0-0----------8-8------------------------------|
1:21
|-----------------------------------------------------------------------||-----------------------------------------------------------------------||-----------------------------------------------------------------------||-----------------------------------------------------------------------| x2|-----\-0-0-----0----0--0-0-0---0--0----8-8--8--8-----5-5---5--5--------||-----\-0-0-----0----0--0-0-0---0--0----8-8--8--8-----5-5---5--5---3@---|
1:37
(this is really only the bass playing this...)|--------------------------------------------------||--------------------------------------------------||--------------------------------------------------||--------------------------------------------------| x2|----0-----3------8-----5--------------------------||----0-----3------8-----5--------------------------|
Verse 3 1:50
|--------------------------------------------------||--------------------------------------------------||--------------------------------------------------||--------------------------------------------------| x2|----0-0----------8-8------------------------------||----0-0----------8-8------------------------------|
2:05
|---------------------------------------------------------------------||---------------------------------------------------------------------||---------------------------------------------------------------------||---------------------------------------------------------------------| x2|--\-0-0----0----0--0-0-0---0--0----8-8--8--8-----5-5---5--5----------||--\-0-0----0----0--0-0-0---0--0----8-8--8--8-----5-5---5--5---3@-----|
2:20
|--------------------------------------------------||--------------------------------------------------||--------------------------------------------------||--------------------------------------------------| x2|----0-----3------8-----5--------------------------||----0-----3------8-----5--------------------------|
|--------------------------------------------------||--------------------------------------------------||--------------------------------------------------||--------------------------------------------------| x2|----0-----3------8-----5--------------------------||----0-----3------8-----5-------8--7--5------------| * * *
2:51
|--------------------------------------------------||--------------------------------------------------||--------------------------------------------------||--------------------------------------------------| x3|----8-8--8--7--0-0--0-0----12--10---10-10---7-----||----8-8--8--7--0-0--0-0----12--10---10-10---7-----|
|--------------------------------------------------||--------------------------------------------------||--------------------------------------------------||--------------------------------------------------||----8-8--8--7--0-0--0-0----12--10---10-10---7---5-||----8-8--8--7--0-0--0-0----12--10---10-10---7---5-|
Verse 4 3:24
|--------------------------------------------------||--------------------------------------------------||--------------------------------------------------||--------------------------------------------------||----0-------3--------8------3-5-------------------||----0-------3--------8------3-5-------------------|
|--------------------------------------------------||--------------------------------------------------||--------------------------------------------------||--------------------------------------------------| x3|----0-----3------8-----5--------------------------||----0-----3------8-----5-------8--7--5------------| * * *
End 4:06
|--------------------------------------------------||--------------------------------------------------||-----------------5---7----------------------------||---1-------------5---7----------------------------||---1-------------3---5----------------------------||---1----------------------------------------------|
Tap to rate this tab
 
# A B C D E F G H I J K L M N O P Q R S T U V W X Y Z