Deathstars – Virtue To Vice tab

=====================================================
                 "Virtue to Vice"

                    Deathstars
                Termination Bliss

=====================================================

Tabbed By: John Moores
           mooresjw@email.uc.edu


Tuning: Drop C (CGCFAD)

Legend:

Intro (on piano)


Riff 10:13|--------------------------------------------------||--------------------------------------------------||--------------------------------------------------||--------------------------------------------------| |--0----0-0------0----0-0-----5---5-5----8--10-----||--0----0-0------0----0-0-----5---5-5----8--10-----| * * * * * *
Riff 20:25|--------------------------------------------------||--------------------------------------------------||--------------------------------------------------||--------------------------------------------------||-/3\-0--0--0-0--0-0--0-0-----0--0--0-0--0-0--0-0--||-/3\-0--0--0-0--0-0--0-0---0-0--0--0-0--0-0--0-0--| * * * * * * * * * * * * *
|--------------------------------------------------||--------------------------------------------------||--------------------------------------------------||--------------------------------------------------||---5--5--5-5--5-5--5-5-----8---8---10----10-----5-||-0-5--5--5-5--5-5--5-5---5-8---8---10----10-----5-| * * * * * * * *
Verse 1 0:39
0:55|--------------------------------------------------||--------------------------------------------------||--------------------------------------------------||--------------------------------------------------||--0--0-0-0----2--2-2--2--22-3--3-3-3----5--5-5--5-||--0--0-0-0----2--2-2--2--22-3--3-3-3----5--5-5--5-| * * * * ** * * * *
|--------------------------------------------------||--------------------------------------------------||--------------------------------------------------||--------------------------------------------------||--0--0-0-0----2--2-2--2--22-3--3-3-3----8--8-8--8-||--0--0-0-0----2--2-2--2--22-3--3-3-3----8--8-8--8-| * * * * ** * * * *
Chorus1:09|--------------------------------------------------||--------------------------------------------------||--------------------------------------------------||--------------------------------------------------||-----0--0--0-0--0-0--0-0-----0--0--0-0--0-0--0-0--||-----0--0--0-0--0-0--0-0---0-0--0--0-0--0-0--0-0--| * * * * * * * * * * * * *
|--------------------------------------------------||--------------------------------------------------||--------------------------------------------------||--------------------------------------------------||---5--5--5-5--5-5--5-5-----8---8---10----10-------||-0-5--5--5-5--5-5--5-5---5-8---8---10----10-------| * * * * * * * *
Verse 2 1:21
1:33|--------------------------------------------------||--------------------------------------------------||--------------------------------------------------||--------------------------------------------------||--0--0-0-0----2--2-2--2--22-3--3-3-3----5--5-5--5-||--0--0-0-0----2--2-2--2--22-3--3-3-3----5--5-5--5-| * * * * ** * * * *
|--------------------------------------------------||--------------------------------------------------||--------------------------------------------------||--------------------------------------------------||--0--0-0-0----2--2-2--2--22-3--3-3-3----8--8-8--8-||--0--0-0-0----2--2-2--2--22-3--3-3-3----8--8-8--8-| * * * * ** * * * *
Chorus1:46|--------------------------------------------------||--------------------------------------------------||--------------------------------------------------||--------------------------------------------------||-----0--0--0-0--0-0--0-0-----0--0--0-0--0-0--0-0--||-----0--0--0-0--0-0--0-0---0-0--0--0-0--0-0--0-0--| * * * * * * * * * * * * *
|--------------------------------------------------||--------------------------------------------------||--------------------------------------------------||--------------------------------------------------||---5--5--5-5--5-5--5-5-----8---8---10----10-------||-0-5--5--5-5--5-5--5-5---5-8---8---10----10-------| * * * * * * * *
Bridge 2:00
|--------------------------------------------------||--------------------------------------------------||--------------------------------------------------||--------------------------------------------------| |--0----0-0------5----5-5-----12---12-12----10--7--||--0----0-0------5----5-5-----12---12-12----10--7--| * * * * * *
|--------------------------------------------------||--------------------------------------------------||--------------------------------------------------||--------------------------------------------------| |--0--0-0--0-0--0-----5--5-5--5-5--5-5-------------||--0--0-0--0-0--0-0---5--5-5--5-5--5-5-------------| * * * * * * * * * * * *
|--------------------------------------------------||--------------------------------------------------||--------------------------------------------------||--------------------------------------------------| |---12--12-12--12-12--12-12--------10--------------||-5-12--12-12--12-12--12-12-----12-10-----7-7-7----| * * * * * * * * * * *
2:27
2:54|--------------------------------------------------||--------------------------------------------------||--------------------------------------------------||--------------------------------------------------||--0--0-0-0----2--2-2--2--22-3--3-3-3----5--5-5--5-||--0--0-0-0----2--2-2--2--22-3--3-3-3----5--5-5--5-| * * * * ** * * * *
|--------------------------------------------------||--------------------------------------------------||--------------------------------------------------||--------------------------------------------------||--0--0-0-0----2--2-2--2--22-8--8-8-8----7--7-7--7-||--0--0-0-0----2--2-2--2--22-8--8-8-8----7--7-7--7-| * * * * ** * * * *
|--------------------------------------------------||--------------------------------------------------||--------------------------------------------------||--------------------------------------------------||--0--0-0-0----2--2-2--2--22-3--3-3-3----5--5-5--5-||--0--0-0-0----2--2-2--2--22-3--3-3-3----5--5-5--5-| * * * * ** * * * *
|--------------------------------------------------||--------------------------------------------------||--------------------------------------------------||--------------------------------------------------||--0--0-0-0----2--2-2--2--22-3--3-3-3----8--8-8--8-||--0--0-0-0----2--2-2--2--22-3--3-3-3----8--8-8--8-| * * * * ** * * * *
3:20|--------------------------------------------------||--------------------------------------------------||--------------------------------------------------||--------------------------------------------------||-/3\-0--0--0-0--0-0--0-0-----0--0--0-0--0-0--0-0--||-/3\-0--0--0-0--0-0--0-0---0-0--0--0-0--0-0--0-0--| * * * * * * * * * * * * *
|--------------------------------------------------||--------------------------------------------------||--------------------------------------------------||--------------------------------------------------||---5--5--5-5--5-5--5-5-----8---8---10----10-------||-0-5--5--5-5--5-5--5-5---5-8---8---10----10-------| * * * * * * * *
3:33|--------------------------------------------------||--------------------------------------------------||--------7-----------------------------------------||--5-----7-----------------------------------------||--5-----5-----0-0---------------------------------||--5-----------0-0---------------------------------| ^ * * ^ lightly (maybe decreased volume)
Please rate this tab:
x1.0