Deathstars - Blood Stains Blondes tab

=========================================================

                "Blood Stains Blondes"
                    
                      Deathstars

                 Night Electric Night

=========================================================


Tabbed by: John Moores  

Tuning: Drop C (CGCFAD)

Legend: * = Palm Mute
        ~ = Let ring


Intro

0:06

|--------------------------------------------------------||--------------------------------------------------------||--------------------------------------------------------||--------------------------------------------------------||--------------------------------------------------------||----0-0--0-0---0-0--0----0-0--0-0--0-0--0---------------| * * * * * * * * * * * * * *
0:14 |-------------------------------------------------------------| |-------------------------------------------------------------| |-------------------------------------------------------------| |-------------------------------------------------------------| |---0-0-0-0-0-0-0-0--8-8-8-8-8-8-8-8--10-10-10-10-10-10-10-10-| |---0-0-0-0-0-0-0-0--8-8-8-8-8-8-8-8--10-10-10-10-10-10-10-10-|
|-------------------------------------------------------------| |-------------------------------------------------------------| |-------------------------------------------------------------| |----5------3------2------------------------------------------| |----5------3------2------------------------------------------| |----5------3------2------------------------------------------|
|-------------------------------------------------------------| |-------------------------------------------------------------| |-------------------------------------------------------------| |-------------------------------------------------------------| |---0-0-0-0-0-0-0-0--8-8-8-8-8-8-8-8--10-10-10-10-10-10-10-10-| |---0-0-0-0-0-0-0-0--8-8-8-8-8-8-8-8--10-10-10-10-10-10-10-10-|
|-------------------------------------------------------------| |-------------------------------------------------------------| |-------------------------------------------------------------| |----5--5--5--5-----------------------------------------------| |----5--5--5--5-----------------------------------------------| |----5--5--5--5-----------------------------------------------|
Verse 10:28|--------------------------------------------------------||--------------------------------------------------------||--------------------------------------------------------||--------------------------------------------------------||--------------------------------------------------------||--------------------------------------------------------|
Pre-chorus 0:56
|--------------------------------------------------------||--------------------------------------------------------||--------------------------------------------------------||----7---------5-----7-----------------------------------||----7---------5-----7-----------------------------------||----7----7-7--5-----7-----------------------------------| * *
Chorus 1:03
|-------------------------------------------------------------| |-------------------------------------------------------------| |-------------------------------------------------------------| |-------------------------------------------------------------| |---0-0-0-0-0-0-0-0--8-8-8-8-8-8-8-8--10-10-10-10-10-10-10-10-| |---0-0-0-0-0-0-0-0--8-8-8-8-8-8-8-8--10-10-10-10-10-10-10-10-|
|-------------------------------------------------------------| |-------------------------------------------------------------| |-------------------------------------------------------------| |----5------3------2------------------------------------------| |----5------3------2------------------------------------------| |----5------3------2------------------------------------------|
|-------------------------------------------------------------| |-------------------------------------------------------------| |-------------------------------------------------------------| |-------------------------------------------------------------| |---0-0-0-0-0-0-0-0--8-8-8-8-8-8-8-8--10-10-10-10-10-10-10-10-| |---0-0-0-0-0-0-0-0--8-8-8-8-8-8-8-8--10-10-10-10-10-10-10-10-|
|-------------------------------------------------------------| |-------------------------------------------------------------| |-------------------------------------------------------------| |----5--5--5--5-----------------------------------------------| |----5--5--5--5-----------------------------------------------| |----5--5--5--5-----------------------------------------------|
Verse 21:18|--------------------------------------------------------||--------------------------------------------------------||--------------------------------------------------------||--------------------------------------------------------||--------------------------------------------------------||--------------------------------------------------------|
1:32|-------------------------------------------------------------| |-------------------------------------------------------------| |-------------------------------------------------------------| |-------------------------------------------------------------| |---0-0-0-0-0-0-0-0--8-8-8-8-8-8-8-8--10-10-10-10-10-10-10-10-| |---0-0-0-0-0-0-0-0--8-8-8-8-8-8-8-8--10-10-10-10-10-10-10-10-|
* * * * * * * * * * * * * * * * * * * * * * * *|-------------------------------------------------------------| |-------------------------------------------------------------| |-------------------------------------------------------------| |----5--5--5--5-----------------------------------------------| |----5--5--5--5-----------------------------------------------| |----5--5--5--5-----------------------------------------------| * * * *
|-------------------------------------------------------------| |-------------------------------------------------------------| |-------------------------------------------------------------| |-------------------------------------------------------------| |---0-0-0-0-0-0-0-0--8-8-8-8-8-8-8-8--10-10-10-10-10-10-10-10-| |---0-0-0-0-0-0-0-0--8-8-8-8-8-8-8-8--10-10-10-10-10-10-10-10-|
* * * * * * * * * * * * * * * * * * * * * * * *|-------------------------------------------------------------| |-------------------------------------------------------------| |-------------------------------------------------------------| |----7--7--7--7-----------------------------------------------| |----7--7--7--7-----------------------------------------------| |----7--7--7--7-----------------------------------------------| * * * *
Pre-chorus 1:46 Chorus 1:53
2:07|--------------------------------------------------------||--------------------------------------------------------||--------------------------------------------------------||--------------------------------------------------------| x4|--------------------------------------------------------||----0-0--0-0---0-0--0----0-0--0-0--0-0--0-00------------| * * * * * * * * * * * * * * **
Pre-chorus 2:35 Chorus 2:42 Repeat twice Intro 3:11
Tap to rate this tab
 
# A B C D E F G H I J K L M N O P Q R S T U V W X Y Z