Deathstars - Damn Me tab

===========================================================

                         Damn Me
===========================================================

By:  Deathstars
Album: Synthetic Generation

Tabbed by: John Moores
mooresjw@email.uc.edu



Drop C Tuning (CGCFAD)

* = Palm Mute
@ = Pinched harmonic
x = muted

Intro
0:16

|-------------------------------------------------------||-------------------------------------------------------||-------------------------------------------------------||-------2---2-------5-----------2---2--------5----------||-------2---2-------5-----------2---2--------3----------||-------2---2--2222-5-----------2---2--2222-------------|
**** **** x2|-------------------------------------------------------||-------------------------------------------------------||-------------------------------------------------------||-------2---2-------5-----------2---2--------1----------||-------2---2-------5-----------2---2--------1----------||-------2---2--2222-5-----------2---2--2222--1----------| **** ****
Verse 1 0:30
|-------------------------------------------------------||-------------------------------------------------------||----------Nothing is played during---------------------||---------------the verse-------------------------------||-------------------------------------------------------||-------------------------------------------------------|
Pre-chorus 0:43
|-------------------------------------------------------||-------------------------------------------------------||-------------------------------------------------------||---10-------9----5----9-------9------------------------||---10----7--9----5----9---10--9--9--9------------------||---10----7--9----5----9---10--9--9--9------------------|
Chorus0:50|------------------------------------------------||------------------------------------------------||------------------------------------------------||---2--------5---2------2------5-----2----1------||---2--------3---0------2------3-----0----1------||---2-------------------2-----------------1------|
|------------------------------------------------||------------------------------------------------||------------------------------------------------||---2--------5---2----2--4--5---8----------------||---2--------3---0----0--2--3---6----------------||---2--------------------------------------------|
Intro Riff 1:03
|-------------------------------------------------------||-------------------------------------------------------||-------------------------------------------------------||-------2---2-------5-----------2---2--------5----------||-------2---2-------5-----------2---2--------3----------||-------2---2--2222-5-----------2---2--2222-------------|
**** **** x2|-------------------------------------------------------||-------------------------------------------------------||-------------------------------------------------------||-------2---2-------5-----------2---2--------1----------||-------2---2-------5-----------2---2--------1----------||-------2---2--2222-5-----------2---2--2222--1----------| **** ****
Verse 2 1:17
|-------------------------------------------------------||-------------------------------------------------------||----------Nothing is played during---------------------||---------------the verse-------------------------------||-------------------------------------------------------||-------------------------------------------------------|
Pre-chorus 1:30
|-------------------------------------------------------||-------------------------------------------------------||-------------------------------------------------------||---10-------9----5----9-------9------------------------||---10----7--9----5----9---10--9--9--9------------------||---10----7--9----5----9---10--9--9--9------------------|
Chorus 1:37
|------------------------------------------------||------------------------------------------------||------------------------------------------------||---2--------5---2------2------5-----2----1------||---2--------3---0------2------3-----0----1------||---2-------------------2-----------------1------|
x2|------------------------------------------------||------------------------------------------------||------------------------------------------------||---2--------5---2----2--4--5---8----------------||---2--------3---0----0--2--3---6----------------||---2--------------------------------------------|
Intro Riff 2:04
|-------------------------------------------------------||-------------------------------------------------------||-------------------------------------------------------||-------2---2-------5-----------2---2--------5----------||-------2---2-------5-----------2---2--------3----------||-------2---2--2222-5-----------2---2--2222-------------|
**** **** x2|-------------------------------------------------------||-------------------------------------------------------||-------------------------------------------------------||-------2---2-------5-----------2---2--------1----------||-------2---2-------5-----------2---2--------1----------||-------2---2--2222-5-----------2---2--2222--1----------| **** ****
Bridge 2:17 Only keyboard Pre-chorus 2:44
|-------------------------------------------------------||-------------------------------------------------------||-------------------------------------------------------||---10-------9----5----9-------9------------------------||---10----7--9----5----9---10--9--9--9------------------||---10----7--9----5----9---10--9--9--9------------------|
Chorus 2:51
|------------------------------------------------||------------------------------------------------||------------------------------------------------||---2--------5---2------2------5-----2----1------||---2--------3---0------2------3-----0----1------||---2-------------------2-----------------1------|
x2|------------------------------------------------||------------------------------------------------||------------------------------------------------||---2--------5---2----2--4--5---8----------------||---2--------3---0----0--2--3---6----------------||---2--------------------------------------------|
3:17|-------------------------------------------------------||-------------------------------------------------------||-------------------------------------------------------||-------2---2-------5-----------2---2--------5----------||-------2---2-------5-----------2---2--------3----------||-------2---2--2222-5-----------2---2--2222-------------| **** ****
|------------------------------------------||------------------------------------------||------------------------------------------||-------2---2-------5-----------2----------||-------2---2-------5-----------2----------||-------2---2--2222-5-----------2----------| ****
Tap to rate this tab
 
# A B C D E F G H I J K L M N O P Q R S T U V W X Y Z