Deathstars - Little Angel tab

===========================================================

                       Little Angel
===========================================================

By:  Deathstars
Album: Synthetic Generation

Tabbed by: John Moores
mooresjw@email.uc.edu



Drop C Tuning (CGCFAD)

* = Palm Mute
@ = Pinched harmonic
x = muted

Intro/Main Riff
0:24

|-------------------------------------------||-------------------------------------------||-------------------------------------------||--5---5----------0---1---1----------4------| |--5---5--5-555---0---1---1--1-111---4------||--5---5--5-555---0---1---1--1-111---4------|
** ** x2|-------------------------------------------||-------------------------------------------||-------------------------------------------||--5---5----------0---1---1-----------------| |--5---5--5-555---0---1---1--1-111-444------||--5---5--5-555---0---1---1--1-111-444------| ** ** **
Verse 1 0:43
|-------------------------------------------------||-------------------------------------------------||--------Nothing is played during-----------------||-------------------------------------------------||------------this part of the verse---------------||-------------------------------------------------|
1:01
|-------------------------------------------------||-------------------------------------------------||-------------------------------------------------||--5--5------------5--0--1--1------------1--4-----| x4|--5--5------------5--0--1--1------------1--4-----||--5--5--5-5-5-5-5-5--0--1--1--1-1-1-1-1-1--4-----| * * * * * * * * * *
Prechorus 1:20
|--------------------------------------------------||--------------------------------------------------||--------------------------------------------------||--5--5-555-555-555--5--7--7-777-777-777--7--------||--3--3-333-333-333--3--5--5-555-555-555--5--------||--------------------------------------------------| ** ** ** ** ** **
|--------------------------------------------------||--------------------------------------------------||--------------------------------------------------||--8--8-888-888-888--8--10-10-101010-101010-101010-||--6--6-666-666-666--6--8--8--8-8-8--8-8-8--8-8-8--||--------------------------------------------------| ** ** ** * * * * * *
Chorus/Main Riff 1:29
|-------------------------------------------||-------------------------------------------||-------------------------------------------||--5---5----------0---1---1----------4------| |--5---5--5-555---0---1---1--1-111---4------||--5---5--5-555---0---1---1--1-111---4------|
** ** x2|-------------------------------------------||-------------------------------------------||-------------------------------------------||--5---5----------0---1---1-----------------| |--5---5--5-555---0---1---1--1-111-444------||--5---5--5-555---0---1---1--1-111-444------| ** ** **
Verse 2 1:48
|-------------------------------------------------||-------------------------------------------------||--------Nothing is played during-----------------||-------------------------------------------------||------------this part of the verse---------------||-------------------------------------------------|
2:06
|-------------------------------------------------||-------------------------------------------------||-------------------------------------------------||--5--5------------5--0--1--1------------1--4-----| x4|--5--5------------5--0--1--1------------1--4-----||--5--5--5-5-5-5-5-5--0--1--1--1-1-1-1-1-1--4-----| * * * * * * * * * *
Prechorus 2:25
|--------------------------------------------------||--------------------------------------------------||--------------------------------------------------||--5--5-555-555-555--5--7--7-777-777-777--7--------||--3--3-333-333-333--3--5--5-555-555-555--5--------||--------------------------------------------------| ** ** ** ** ** **
|--------------------------------------------------||--------------------------------------------------||--------------------------------------------------||--8--8-888-888-888--8--10-10-101010-101010-101010-||--6--6-666-666-666--6--8--8--8-8-8--8-8-8--8-8-8--||--------------------------------------------------| ** ** ** * * * * * *
Chorus/Main Riff 2:34
|-------------------------------------------||-------------------------------------------||-------------------------------------------||--5---5----------0---1---1----------4------| |--5---5--5-555---0---1---1--1-111---4------||--5---5--5-555---0---1---1--1-111---4------|
** ** x2|-------------------------------------------||-------------------------------------------||-------------------------------------------||--5---5----------0---1---1-----------------| |--5---5--5-555---0---1---1--1-111-444------||--5---5--5-555---0---1---1--1-111-444------| ** ** **
Bridge 2:53
|-------------------------------------------||-------------------------------------------||--------Nothing is played during-----------||-------------------------------------------||------------this part----------------------||-------------------------------------------|
Chorus/Main Riff 3:21
|-------------------------------------------||-------------------------------------------||-------------------------------------------||--5---5----------0---1---1----------4------| |--5---5--5-555---0---1---1--1-111---4------||--5---5--5-555---0---1---1--1-111---4------|
** ** x4|-------------------------------------------||-------------------------------------------||-------------------------------------------||--5---5----------0---1---1-----------------| |--5---5--5-555---0---1---1--1-111-444------||--5---5--5-555---0---1---1--1-111-444------| ** ** **
Tap to rate this tab
 
# A B C D E F G H I J K L M N O P Q R S T U V W X Y Z