Deathstars - Syndrome tab

===========================================================

                   Syndrome
===========================================================

By:  Deathstars
Album: Synthetic Generation

Tabbed by: John Moores
mooresjw@email.uc.edu



Drop C Tuning (CGCFAD)

* = Palm Mute
@ = Pinched harmonic
x = muted

Intro/Main Riff
0:05

|---------------------------||---------------------------||---------------------------||---------------------------| x4|---------------------------||--2-2-2---22-2-2-2---------| * * * ** * * *
Verse 1 0:15
|---------------------------||---------------------------||---------------------------||---------------------------| x4|---------------------------||--2-2-2---22-2-2-2---------| * * * ** * * *
|---------------------------||---------------------------||---------------------------||---------------------------| x4|---------------------------||--2-2-2-2--222-2-2-2-------| * * * * *** * * *
(This change is rhythm is barely audible, so it doesn't matter if you want to just continue the prior rhythm or not.) Chorus 0:42
|----------------------------------------------||----------------------------------------------||----------------------------------------------||-22-2-2-2-----------------77-7-7-7--77-7-7-7--| x3|-00-0-0-0-33-3-3-3--3-3-3-55-5-5-5--55-5-5-5--||----------33-3-3-3--3-3-3---------------------| ** * * * ** * * * * * * ** * * * ** * * *
|----------------------------------------------||----------------------------------------------||----------------------------------------------||-22-2-2-2-------------------------------------||-00-0-0-0-33-3-3-3--3-3-3-55-5-5-5--55-5-3-0--||----------33-3-3-3--3-3-3---------------------| ** * * * ** * * * * * * ** * * * ** * * *
Intro Riff 1:02
|---------------------------||---------------------------||---------------------------||---------------------------| x4|---------------------------||--2-2-2---22-2-2-2---------| * * * ** * * *
Verse 2 1:13
|---------------------------||---------------------------||---------------------------||---------------------------| x4|---------------------------||--2-2-2---22-2-2-2---------| * * * ** * * *
|---------------------------||---------------------------||---------------------------||---------------------------| x4|---------------------------||--2-2-2-2--222-2-2-2-------| * * * * *** * * *
Chorus 1:39
|----------------------------------------------||----------------------------------------------||----------------------------------------------||-22-2-2-2-----------------77-7-7-7--77-7-7-7--| x3|-00-0-0-0-33-3-3-3--3-3-3-55-5-5-5--55-5-5-5--||----------33-3-3-3--3-3-3---------------------| ** * * * ** * * * * * * ** * * * ** * * *
|----------------------------------------------||----------------------------------------------||----------------------------------------------||-22-2-2-2-------------------------------------||-00-0-0-0-33-3-3-3--3-3-3-55-5-5-5--55-5-3-0--||----------33-3-3-3--3-3-3---------------------| ** * * * ** * * * * * * ** * * * ** * * *
Bridge 1:59 Chorus (1 whole step up from last time) 2:25
|----------------------------------------------||----------------------------------------------||----------------------------------------------||-99-9-9-9-----------------99-9-9-9--99-9-9-9--| x7|-99-9-9-9-55-5-5-5--5-5-5-77-7-7-7--77-7-7-7--||-99-9-9-9-55-5-5-5--5-5-5---------------------| ** * * * ** * * * * * * ** * * * ** * * *
|-----------------------||-----------------------||-----------------------||----99-9---------------||----99-9---------------||----99-9---------------| ** *
Tap to rate this tab
 
# A B C D E F G H I J K L M N O P Q R S T U V W X Y Z